Басовая табулатура

intro:        
G-----------
D-----------
A----------1
E-3--3--3---

main part:    G-----------------------------------------
D-----------------------------------------
A-33-1-33-3-11---11-1----------------11-1-
E--------------4------11-0-11-1-44-1------

part without drums I:
G----------------------------------------------
D----------------------------------------------
A-3--------1--3---------1--3-----------1-------
E-------3------------3--------4-4---1------3---

MAIN PART..

part without drums II:
G----------------------------------------------------------------------------
D----------------------------------------------------------------------------
A-3--------1--3---------1--3------1-----1--3------1-----1--3---------1-------
E-------3------------3--------44-----3--------44-----3--------4---1------3---

MAIN PART } 1x

then:        
(in the rythm of the base drum)
G------------------- } 6x
D-------------------
A-33-33-3-4-44-44-4-
E-------------------

then:        
G---------------------------------------------- } 1x
D----------------------------------------------
A-33-3-33-3---------------------11-1-11-1------
E-----------44-4-44-4-11-1-11-1------------3---

MAIN PART } 2x

then:        
G--------------------- } 3x
D---------------------
A----------------11-1-
E-11-0-11-1-44-1------

Другие песни этого исполнителя/группы


© Авторские права на тексты, песни, видео и другую представленную информацию принадлежат правообладателям. Аккорды, табы, gtp и тексты песен взяты из открытых источников.
Возрастная категория сайта: 18+
Тексты некоторых песен могут содержать нецензурные выражения, брань.
© 2020 guitar-chords.ru