TITANIC

  C       G       F       G          C       G       F 
-|------------------------0--1p0----|------------------------------|-
-|1--11-1-0-1---1-0-1---3--0----3---|1--11-1-0-1---1---------------|-
-|--0----0-0-0-0-0---2-2-2--0----0-0|--0----0-0-0-0-0---2------2---|-
-|-2---2------0----3--3-----------0-|-2---2------0---3-3-3-33-3-3-3|- } X 2
-|3---3-----------3-----------------|3---3-----------33---3-33---3-|-
-|--------3---------------3-----3---|--------3---------------------|-

Chorus:        
  Am       G       F        G        Am      G       F       G 
-|-----------------3--1--0h1----0-1-|0-------------------------------|-
-|1--1--0h13--3--3--1--1----3-------|---13-1-0-1---0----1---10--3--0-|-
-|--2-2------0-0--0--2--2------0-0-0|--2--2-2-0-0-0-02-2-2-2---0-0--0|-
-|-2---2----0---0--3----------0-----|-2----------0----3---3---0---0--|-
-|0--------------------------2------|0---------------3---------------|-
-|---------3----------------3-------|--------3---------------3-------|-

  Am       G       F        G        Am      G       F       G 
-|-----------------3--1--0h1----0-1-|0-----------------------0--1p0---|-
-|1--1--0h13--3--3--1--1----3-------|---13-1-0-1---0-0-1---3---0---3--|-
-|--2-2------0-0--0--2--2------0-0-0|--2--2-2-0-0-0-0---2-2-2-0-----0-|-
-|-2---2----0---0--3----------0-----|-2----------0----3--3-----------0|-
-|0--------------------------2------|0---------------3----------------|-
-|---------3----------------3-------|--------3---------------3--------|-

Bridge:        
  C 
-|----------
-|11--1--1--
-|---0-0--0-
-|--2---2---
-|-3--------
-|----------

© Авторские права на тексты, песни, видео и другую представленную информацию принадлежат правообладателям. Аккорды, табы, gtp и тексты песен взяты из открытых источников.
Возрастная категория сайта: 18+
Тексты некоторых песен могут содержать нецензурные выражения, брань.
© 2020 guitar-chords.ru