The Road to Hell

PLAY 1 - Electric piano arranged for one guitar.

1 - Intro
e--------------8-----|----10------12------10--|----8-----------13----|
h--------------10----|----12------13------12--|----10----------15----|
g--------------------|------------------------|----------------------|
d--------------------|------------------------|----------------------|
a--------------------|------------------------|----------------------|
e--------------------|------------------------|----------------------|

----15------17------15--|----13----------------|----------7--------|
----17------18------17--|----15------13--------|----------9--------|
------------------------|------------14--------|----------9--------|
------------------------|------------15--------|-------------------|
------------------------|----------------------|-------------------|
------------------------|----------------------|-------------------|

----------8---------|------------------|--------------8-----|
----------10--------|------------------|--------------10----|
----------9---------|------------------|--------------------|
--------------------|------------------|--------------------|
--------------------|------------------|--------------------|
--------------------|------------------|--------------------|

----10------12------10--|----8-----------13----|----15------17------15--|
----12------13------12--|----10----------15----|----17------18------17--|
------------------------|----------------------|------------------------|
------------------------|----------------------|------------------------|
------------------------|----------------------|------------------------|
------------------------|----------------------|------------------------|

----13----------------|----------7--------|----------8---------|
----15------13--------|----------9--------|----------10--------|
------------14--------|----------9--------|----------9---------|
------------15--------|-------------------|--------------------|
----------------------|-------------------|--------------------|
----------------------|-------------------|--------------------|

2 - playing over first solo
(Solo playing on slide-guitar by Chris Rea)
e------------------|-------------------|-----------0---------|
h------------------|--------------1----|----3------1------3--|
g------------------|--------------2----|----4-------------4--|
d------------------|-------------------|---------------------|
a------------------|-------------------|---------------------|
e------------------|-------------------|---------------------|

---------------1----|----3------5------3--|----1---------------|
----1----------3----|----5------6------5--|----3----------0----|
----2---------------|---------------------|---------------0----|
--------------------|---------------------|--------------------|
--------------------|---------------------|--------------------|
--------------------|---------------------|--------------------|

------------------0--|----1------0--------|---------0-----------3--|
----1------3------1--|----3------1--------|------1-----3--0--3-----|
----2------4---------|--------------------|------------------------|
---------------------|--------------------|------------------------|
---------------------|--------------------|------------------------|
---------------------|--------------------|------------------------|

---------------------|-----------0---------|---------------1----|
--3----0--------1----|----3------1------3--|----1----------3----|
----------------2----|----4-------------4--|----2---------------|
---------------------|---------------------|--------------------|
---------------------|---------------------|--------------------|
---------------------|---------------------|--------------------|

----3------5------3--|----1---------------|-------------------|
----5------6------5--|----3------1--------|----------0--------|
---------------------|-----------2--------|----------1--------|
---------------------|-----------3--------|----------2--------|
---------------------|--------------------|-------------------|
---------------------|--------------------|-------------------|

-------------------|------------------|----------0--------|------------------|
----------1--------|------------------|----------1--------|------------------|
----------2--------|------------------|----------0--------|------------------|
----------2--------|------------------|-------------------|------------------|
-------------------|------------------|-------------------|------------------|
-------------------|------------------|-------------------|------------------|

-------------------|---------------0-----|--------------------|
----------3--------|----------3-------6--|----3------1--------|
----------4--------|----------4----5--7--|----4------2--------|
----------5--------|----------5----5--5--|----5------3--------|
-------------------|---------------------|--------------------|
-------------------|---------------------|--------------------|

----------------------|-------------------|------------------|
----------1--------1--|----------0--------|------------------|
----------------2-----|----------1--------|------------------|
-------------3--------|----------2--------|------------------|
----------------------|-------------------|------------------|
----------------------|-------------------|------------------|

3 - Outro
Playing over second solo and fade out...
e-------------------|-----------0---------|---------------1----|
h--------------1----|----3------1------3--|----1----------3----|
g--------------2----|----4-------------4--|----2---------------|
d-------------------|---------------------|--------------------|
a-------------------|---------------------|--------------------|
e-------------------|---------------------|--------------------|

----3------5------3--|----1---------------|-------------------|
----5------6------5--|----3------1--------|----------0--------|
---------------------|-----------2--------|----------1--------|
---------------------|-----------3--------|----------2--------|
---------------------|--------------------|-------------------|
---------------------|--------------------|-------------------|

-------------------|------------------|-------------------|
----------1--------|------------------|--------------1----|
----------2--------|------------------|--------------2----|
----------2--------|------------------|-------------------|
-------------------|------------------|-------------------|
-------------------|------------------|-------------------|

-----------0---------|---------------1----|----3------5------3--|
----3------1------3--|----1----------3----|----5------6------5--|
----4-------------4--|----2---------------|---------------------|
---------------------|--------------------|---------------------|
---------------------|--------------------|---------------------|
---------------------|--------------------|---------------------|

----1---------------|-------------------|-------------------|------------------|
----3------1--------|----------0--------|----------1--------|------------------|
-----------2--------|----------1--------|----------2--------|------------------|
-----------3--------|----------2--------|----------2--------|------------------|
--------------------|-------------------|-------------------|------------------|
--------------------|-------------------|-------------------|------------------|

-------------------|-----------0---------|---------------1----|
--------------1----|----3------1------3--|----1----------3----|
--------------2----|----4-------------4--|----2---------------|
-------------------|---------------------|--------------------|
-------------------|---------------------|--------------------|
-------------------|---------------------|--------------------|

----3------5------3--|----1---------------|-------------------|
----5------6------5--|----3------1--------|----------0--------|
---------------------|-----------2--------|----------1--------|
---------------------|-----------3--------|----------2--------|
---------------------|--------------------|-------------------|
---------------------|--------------------|-------------------|

-------------------|------------------|-------------------|
----------1--------|------------------|--------------1----|
----------2--------|------------------|--------------2----|
----------2--------|------------------|-------------------|
-------------------|------------------|-------------------|
-------------------|------------------|-------------------|

-----------0---------|---------------1----|----3------5------3--|
----3------1------3--|----1----------3----|----5------6------5--|
----4-------------4--|----2---------------|---------------------|
---------------------|--------------------|---------------------|
---------------------|--------------------|---------------------|
---------------------|--------------------|---------------------|
                                                                fade out...
----1---------------|-------------------|-------------------|------------------|
----3------1--------|----------0--------|----------1--------|------------------|
-----------2--------|----------1--------|----------2--------|------------------|
-----------3--------|----------2--------|----------2--------|------------------|
--------------------|-------------------|-------------------|------------------|
--------------------|-------------------|-------------------|------------------|

-------------------|-----------0---------|-------------------||
--------------1----|----3------1------3--|----1--------------||
--------------2----|----4-------------4--|----2--------------||
-------------------|---------------------|-------------------||
-------------------|---------------------|-------------------||
-------------------|---------------------|-------------------||

---------------------------------------------------------------

PLAY 2 - Arranges, played during songs up to second guitar solo.

E------------------|------------------|--------------------|--------------------|
H------------------|------------------|--------------------|--------------------|
G------------------|------------------|-------------2------|--2----------2------|
D------------------|------------------|-------------2------|--2----------2------|
A------------------|------------------|--------0-----------|--------------------|
E------------------|------------------|--------------------|--------------------|

---------------------|--------------------|----------------------|
---------------------|--------------------|----------------------|
----2---------2------|--2----------2------|--2--2---------2------|
----2---------2------|--2----------2------|--2--2---------2------|
---------0-----------|--------------------|----------0-----------|
---------------------|--------------------|----------------------|

---------------------|---------------------|---------------------|
---------------------|---------------------|------------1--1-----|
--2-----------0------|---------------------|------------------2--|
--2--------2---------|--2----0-------------|---------------------|
---------------------|----------3----------|---------------------|
---------------------|---------------------|---------------------|

----------------------|------------------|-------------------|
--1-----1--3----------|------------------|----------1--------|
-----2----------------|------------------|-------------------|
----------------------|------------------|-------------------|
----------------------|------------------|-------------------|
----------------------|------------------|-------------------|

----7----5--4----------|---------------------|----------5--7----7----|
---------------5-------|---------------------|------5----------------|
------------------4----|---------------------|--5--------------------|
-----------------------|------------------7--|-----------------------|
-----------------------|--------------7------|-----------------------|
-----------------------|----------5----------|-----------------------|

----------7--0------|----------0----0--0--|-------------------|
--------------------|---------------------|----------3--------|
--------------------|---------------------|-------------------|
--------------------|---------------------|-------------------|
--------------------|---------------------|-------------------|
--------------------|---------------------|-------------------|

-----------------0--|----------------------|-------------------|
----------1---------|----1--3-----1--------|----------0--------|
--------------------|----------2-----------|-------------------|
--------------------|----------------------|-------------------|
--------------------|----------------------|-------------------|
--------------------|----------------------|-------------------|

-------------------|---------------------|------------------|------------------|
----------1--------|---------------------|------------------|------------------|
-------------------|----------0----------|------------------|------------------|
-------------------|---------------2-----|------------------|------------------|
-------------------|------------------0--|------------------|------------------|
-------------------|---------------------|------------------|------------------|

------------------|-----------1--------|------------------|------------------|
------------------|---------3----------|------------------|------------------|
------------------|---------2----------|------------------|------------------|
------------------|--------------------|------------------|------------------|
------------------|--------------------|------------------|------------------|
------------------|--------------------|------------------|------------------|

--------------------|------------------------|---------------------|
--------------------|------------------------|---------------------|
---------------2----|--2--2--------0---------|------------2--------|
---------------2----|--2--2----0-2--------2--|------0-----2--------|
----------0---------|------------------------|---------3--0--------|
--------------------|------------------------|---------------------|

------------------|-------------------|------------------|----------0--------|
------------------|----------3--------|------------------|-------------------|
------------------|----------2--------|------------------|-------------------|
------------------|----------0--------|------------------|-------------------|
------------------|-------------------|------------------|-------------------|
------------------|-------------------|------------------|-------------------|

-----0--0------------|---------------------|------------------|
------------3--------|----------1----------|------------------|
---------------------|-------------0--2----|------------------|
---------------------|---------------------|------------------|
---------------------|---------------------|------------------|
---------------------|---------------------|------------------|

----------0------3--|-----------------3--|--1----0-------------|
--------------------|--------------5-----|------------3--------|
--------------------|--------------------|---------------------|
--------------------|--------------------|---------------------|
--------------------|--------------------|---------------------|
--------------------|--------------------|---------------------|

------------------|-------------------|-------------------|------0-------------|
------------------|------------1------|--1----------------|-----------3--------|
------------------|------------2------|--2----------------|--------------------|
------------------|------------3------|--3----------------|--------------------|
------------------|-------------------|-------------------|--------------------|
------------------|-------------------|-------------------|--------------------|

-------------------|-------------------|------------------|------------------|
------------3------|--3----------------|------------------|------------------|
------------4------|--4----------------|------------------|------------------|
------------2------|--2----------------|------------------|------------------|
-------------------|-------------------|------------------|------------------|
-------------------|-------------------|------------------|------------------|
       Fast slide
--------1-5-10--------|------------------|------------------|------------------|
----------------------|------------------|------------------|------------------|
----------------------|------------------|------------------|------------------|
----------------------|------------------|------------------|------------------|
----------------------|------------------|------------------|------------------|
----------------------|------------------|------------------|------------------|

-------------------|--------------------|------------------|------------------|
------------1------|--1--1--------------|------------------|------------------|
------------2------|--2--2--------------|------------------|------------------|
------------2------|--2--2--------------|------------------|------------------|
-------------------|--------------------|------------------|------------------|
-------------------|--------------------|------------------|------------------|

------------------|-------------------|------0--5---7---7-----|
------------------|-------------------|--1--------------------|
------------------|----------------2--|-----------------------|
------------------|-------------------|-----------------------|
------------------|-------------------|-----------------------|
------------------|-------------------|-----------------------|

--0--------0--------|------------------|------------------|------------------|
--------------------|------------------|------------------|------------------|
--------------------|------------------|------------------|------------------|
--------------------|------------------|------------------|------------------|
--------------------|------------------|------------------|------------------|
--------------------|------------------|------------------|------------------|

------------------|------------------|------------------|----5----4----------|
------------------|------------------|------------------|----6----5----------|
------------------|------------------|------------------|----5----4----------|
------------------|------------------|------------------|--------------------|
------------------|------------------|------------------|--------------------|
------------------|------------------|------------------|--------------------|

------------------|------------------|----5--7----5--------|
------------------|------------------|---------------------|
------------------|------------------|---------------------|
------------------|------------------|---------------------|
------------------|------------------|---------------------|
------------------|------------------|---------------------|

------------7----0--|------------------|-----------------------|
--------------------|------------------|--------3-1-3----1--3--|
--------------------|------------------|-----------------------|
--------------------|------------------|-----------------------|
--------------------|------------------|-----------------------|
--------------------|------------------|-----------------------|

------------------|------------------|-------------8--8---|
------------------|------------------|--------------------|
------------------|------------------|--------------------|
------------------|------------------|--------------------|
------------------|------------------|--------------------|
------------------|------------------|--------------------|
                                                                 Starting second guitar solo...
--8---8--8---8----7----|-------------8---8--|--8---8---8--8----7----|
-----------------------|--------------------|-----------------------|
-----------------------|--------------------|-----------------------|
-----------------------|--------------------|-----------------------|
-----------------------|--------------------|-----------------------|
-----------------------|--------------------|-----------------------|

----------------------------------------------------------------

PLAY 3 - First guitar solo.

E----15---15---15--------|----------15--15--------|--------------------|
H----17---17---17--------|----------17--17----17--|--------------------|
G------------------------|--------------------17--|----------------14--|
D------------------------|------------------------|--------------------|
A------------------------|------------------------|--------------------|
E------------------------|------------------------|--------------------|

------------------------|----------------------|------------------|
--13------13------------|------------15--------|------------------|
------14----------------|------14----16--------|------------------|
------------------------|----------------------|------------------|
------------------------|----------------------|------------------|
------------------------|----------------------|------------------|

----------12--15------|------15----15------15--|--15----------15--12--10--8--|
----------------------|------------------------|--------15-------------------|
----------------------|------------------------|-----------------------------|
----------------------|------------------------|-----------------------------|
----------------------|------------------------|-----------------------------|
----------------------|------------------------|-----------------------------|

----------15--------------|----------------5--|--8--5--8------------|
--------------17--15------|-------------------|---------------------|
----------------------17--|-------------------|---------------------|
--------------------------|-------------------|---------------------|
--------------------------|-------------------|---------------------|
--------------------------|-------------------|---------------------|

------5--8--8---8--8---|--8--------7---7-----|-------------------|
-----------------------|---------------------|----------5--------|
-----------------------|---------------------|-------------------|
-----------------------|---------------------|-------------------|
-----------------------|---------------------|-------------------|
-----------------------|---------------------|-------------------|

----------5----------|------------------|------------------|------------------|
--6--5---------------|------------------|------------------|------------------|
---------------------|------------------|------------------|------------------|
---------------------|------------------|------------------|------------------|
---------------------|------------------|------------------|------------------|
---------------------|------------------|------------------|------------------|

----------------------------------------

PLAY 4 - Second guitar solo

E------------------|------------------|----12---12---12--------|
H------------------|------------------|------------------------|
G------------------|------------------|------------------------|
D------------------|------------------|------------------------|
A------------------|------------------|------------------------|
E------------------|------------------|------------------------|

------------------|------12----10--------|--10----------------|
------------------|----------------------|--------------------|
------------------|----------------------|--------------------|
------------------|----------------------|--------------------|
------------------|----------------------|--------------------|
------------------|----------------------|--------------------|

----------------5-8-|--8----8--5--10----10----|--------------15------|
--------------------|-------------------------|------------------17--|
--------------------|-------------------------|----------------------|
--------------------|-------------------------|----------------------|
--------------------|-------------------------|----------------------|
--------------------|-------------------------|----------------------|

----------------------|--------------15----|------------15--------------|
----------------------|--------------------|--17----------------17------|
--17----17------------|--------------------|------17----------------17--|
----------------------|--------------------|----------------------------|
----------------------|--------------------|----------------------------|
----------------------|--------------------|----------------------------|

----------------8--|------8--8------------|----------8------8--|
-------------------|--10------------------|--------------------|
-------------------|----------------------|--------------------|
-------------------|----------------------|--------------------|
-------------------|----------------------|--------------------|
-------------------|----------------------|--------------------|

----8----8--8--7------|--------------3------|----------------------|
----------------------|----------5----------|--0---3--1------------|
----------------------|-----------------0---|-------------2--------|
----------------------|---------------------|----------------------|
----------------------|---------------------|----------------------|
----------------------|---------------------|----------------------|

-----------------------|-----------------------|------------5----3--|
-----------------------|-----------------------|--------------------|
-------0--2--2---------|----0-------2----0--2--|--------------------|
----2---------------2--|---------2-------------|--------------------|
-----------------------|-----------------------|--------------------|
-----------------------|-----------------------|--------------------|

--0---------------0--------|----------------5--|--8---10---12--10------8--|
-----3-1-3--1--3-----3--1--|-------------------|--------------------------|
---------------------------|-------------------|--------------------------|
---------------------------|-------------------|--------------------------|
---------------------------|-------------------|--------------------------|
---------------------------|-------------------|--------------------------|

----10----------17----|------17----17----17--17--|----17--17--17--17------17--|
----------------------|--------------------------|----------------------------|
----------------------|--------------------------|----------------------------|
----------------------|--------------------------|----------------------------|
----------------------|--------------------------|----------------------------|
----------------------|--------------------------|----------------------------|

------17----17----15------|------------------------------|--------------8--8--|
----------------------17--|--17--15----15----------18----|--------------------|
--------------------------|---------17-----17------------|--------------------|
--------------------------|------------------------------|--------------------|
--------------------------|------------------------------|--------------------|
--------------------------|------------------------------|--------------------|

----5-5-8--5--15--------|--12--------------12------|
------------------------|------------13--------13--|
------------------------|--------------------------|
------------------------|--------------------------|
------------------------|--------------------------|
------------------------|--------------------------|

--15--12--------------12------|----------------------------|
----------13--------------13--|--13--------13----13----13--|
--------------14--------------|------14--------------------|
------------------------------|----------------------------|
------------------------------|----------------------------|
------------------------------|----------------------------|

--------------------------|------------------------12--|------------------||
----13----13--13----13----|--13----13----13--13--------|------------------||
--------------------------|----------------------------|------------------||
--------------------------|----------------------------|------------------||
--------------------------|----------------------------|------------------||
--------------------------|----------------------------|------------------||

--------------------------------------

PLAY 5 - Lyrics and chords

Play 1 - intro with Play 2 then...
Am 
Well I'm standing by the river,
Dm 
But the water doesn't flow.
F                   E 
It boils with every poison -
        Am 
You can think of.
Am 
And I'm underneath the street light,
Dm 
The delight of joy I know,
F                  E 
Scared beyond belief,
                Am 
Way down in the shadows.
C 
And the perverted fear of violence,
G 
Chokes a smile on every face,
F                         E 
Common sense is ringing, out the bells.
Am                          Dm 
This ain't no technological breakdown,
F                  E       Am 
Oh-no, this is the road to hell.

------------------
First guitar solo
------------------

C 
And as the roads jam up with credit,
G 
And there's nothing you can do,
F 
It's all just bits of paper,
E 
Flying a way from you.
Am 
Oh look out world take a good look,
Dm 
Look who's down there,
F                                E            Am 
You must learn this lesson fast, and learn it well.
Am                                   Dm 
This ain't no upwardly mobile freeway,
F                  E 
Oh-no, this is the road,
F           E 
This is the road,
F           E        Am 
This is the road ... to hell.

------------------
Second guitar solo
------------------

Другие песни этого исполнителя/группы


© Авторские права на тексты, песни, видео и другую представленную информацию принадлежат правообладателям. Аккорды, табы, gtp и тексты песен взяты из открытых источников.
Возрастная категория сайта: 18+
Тексты некоторых песен могут содержать нецензурные выражения, брань.
© 2020 guitar-chords.ru