#табулатура

    "Set Your Goals"
Set Your Goals

b = bend
N.C = no chords
?????? = unknown

Intro/Verse:
   N.C. 
1|----------------------
2|----------------------
3|----------------------
4|----------------------
5|----4--6-7--6-7--6-7--
6|--5-------------------

Chord between verses:
    A 
1|-----
2|-----
3|-----
4|--7--
5|--7--
6|--5--

Heavy Part:
       D      C    A      D       C 
1|-------------------------------------
2|-------------------------------------
3|--7-7-7-7--5-5-------7-7-7-7--5-5-5--
4|--7-7-7-7--5-5--7-7--7-7-7-7--5-5-5--
5|--5-5-5-5--3-3--7-7--5-5-5-5--3-3-3--
6|--5-5-5-5--3-3--5-5--5-5-5-5--3-3-3--
       D      C    A     D        C 
1|-------------------------------------
2|-------------------------------------
3|--7-7-7-7--5-5-------7-7-7-7--5-5-5--
4|--7-7-7-7--5-5--7-7--7-7-7-7--5-5-5--
5|--5-5-5-5--3-3--7-7--5-5-5-5--3-3-3--
6|--5-5-5-5--3-3--5-5--5-5-5-5--3-3-3--

    E 
1|------------
2|------------
3|--1---------
4|--2---------
5|--2---------
6|--0--3-b3b--

Solo:
   N.C 
1|----------------------------------------------------
2|--8-8-7--8-8-7--8-8-7-5-5--8-8-7--8-8-7--8-8-7--10--
3|----------------------------------------------------
4|----------------------------------------------------
5|----------------------------------------------------
6|----------------------------------------------------
   N.C 
1|-------------------------------------------------
2|-5-5-5-5-5-b6b-5-5-b6b-5-5-b8b-8-8-7-7-5-5--3-3--
3|-------------------------------------------------
4|-------------------------------------------------
5|-------------------------------------------------
6|-------------------------------------------------

Out going solo: Not that loud
   N.C 
1|-----------------------
2|-5--5-5--5-5-5--7-b7b--
3|-----------------------
4|-----------------------
5|-----------------------
6|-----------------------

Lyrics:        
You take one job that you need to make it
That choice may be what you'll ever you get
We all gotta make our decisions
Take the back set everytime
When you can't make it out what your wanting
And you're ??????? everything is fine
You don't know what it is but you want it
You'll run your own way there once you set your goals
Don't get stuck cause the money you're making
You miss too much and it doesn't last
You can go on if you give it
You make more life than a living
When you can't make it out what you're wanting
And you're ??????? everything is fine
You don't know what it is but you want it
You'll run your own way there once you set your goals
Set Your Goals
Well you can't pass up on fame again
You know it's always in your head
You can't live your life just covering up
You might not get a second chance
You might not get a second chance
(Hey Hey Hey Hey)
You gotta good name, won't you dig it
You're the only ones that thinks, don't fake it
You spend your time drawing the line between
yourself and what you want, you gotta set your goals
Set Your Goals
You Gotta set your goals
Set Your Goals
You Gotta set your goals

Другие песни этого исполнителя/группы


© Авторские права на тексты, песни, видео и другую представленную информацию принадлежат правообладателям. Аккорды, табы, gtp и тексты песен взяты из открытых источников.
Возрастная категория сайта: 18+
Тексты некоторых песен могут содержать нецензурные выражения, брань.
© 2020 guitar-chords.ru