Cruelty Brought Thee Orchids

Tune down one whole step.

Riff 1 - do me$$!
x 2
-------------------------------------------------
-------------------------------------------------
-------------------------------------------------
-------------------------------------------------
-------------------------------------------------
-------------------------------------------------

Riff 2
x 4
-------------------------------------------------
-------------------------------------------------
-------------------------------------------------
-------------------------------------4-4-4-------
-2-2-2-2-2-2-2-2-2-2-2-2-2-2-2-2-2-2-2-2-2-5-5-5-
-0-0-0-0-0-0-0-0-0-0-0-0-0-0-0-0-0-0-------3-3-3-
 1 + a 2 + a 3 + a 4 + a 1 + a 2 + a 3 + a 4 + a

-------------------------------------------------
-------------------------------------------------
-------------------------------------------------
-5-5-5-5-5-5-5-5-5-5-5-5-5-5-5-5-5-5-------------
-3-3-3-3-3-3-3-3-3-3-3-3-3-3-3-3-3-3-5-5-5-5-5-5-
-------------------------------------3-3-3-3-3-3-
 1 + a 2 + a 3 + a 4 + a 1 + a 2 + a 3 + a 4 + a

Riff 3 /w tremelo
x 1
------------------------------------
------------------------------------
------------------------------------
--------------------9-7------7------
-10---9---7-9-7---------10-----10-9-
----------------8-------------------

------------------------------
------------------------------
------------------------------
--------------------7-----5---
-10---9---7-9-7-------9-----6-
----------------8-------------

------------------------------------
------------------------------------
------------------------------------
--------------------9-7------7------
-10---9---7-9-7---------10-----10-9-
----------------8-------------------

------------------------------------------------------
------------------------------------------------------
------------------------------------------------------
--------------------7---9-7-9----------9-7-9---10-9-7-
-10---9---10-9-10-------------10-9-7------------------
------------------------------------------------------

Riff 4
x 26
--------------
--------------
--------------
-9-7-9--------
-------10-9-7-
--------------
x 1
----
----
----
-9-
-7-
----

Riff 5
x 4
-------------------------------------------------
-------------------------------------------------
-------------------------------------------------
-12----------------12----11----------11----11----
-10----------------10----9-----------9-----9-----
---0-0-0-0-0-0-0-0---0-0---0-0-0-0-0---0-0---0-0-
 1 + a 2 + a 3 + a 4 + a 1 + a 2 + a 3 + a 4 + a

-------------------------------------------------
-------------------------------------------------
-------------------------------------------------
-8-----------------------5-4---5-4---5-4---5-4---
-6---------------------------3-----3-----3-----5-
---0-0-0-0-0-0-0-0-0-0-0-------------------------
 1 + a 2 + a 3 + a 4 + a 1 + a 2 + a 3 + a 4 + a

Riff 6 - fix me
x 2
-----------------------------------------
-----------------------------------------
-----------------------------------------
-7-----7---7---8-----8---8---7-----7---7-
---5-----5-------6-----6-------5-----5---
-----------------------------------------

----------------------------
----------------------------
----------------------------
-10-9---10-9---10-9--10-9---
------8------8-----8------8-
----------------------------

Riff 7
x 4
-------------------------------------------------
-------------------------------------------------
-------------------------------------------------
-9-----------------7-----9-----------------7-----
-7-----------------5-----7-----------------5-----
---0-0-0-0-0-0-0-0---0-0---0-0-0-0-0-0-0-0---0-0-
 1 + a 2 + a 3 + a 4 + a 1 + a 2 + a 3 + a 4 + a

-------------------------------------------------
-------------------------------------------------
-------------------------------------------------
-9-----------------7-----5-4---5-4---5-4---5-4---
-7-----------------5---------3-----3-----3-----5-
---0-0-0-0-0-0-0-0---0-0-------------------------
 1 + a 2 + a 3 + a 4 + a 1 + a 2 + a 3 + a 4 + a

Riff 8
x 2
--------------------------------------------------------------------
--------------------------------------------------------------------
--------------------------------------------------------------------
-9---------------8---------------10----------------------10/1210---
-7---------------6---------------8-----------------------8-/108----
---0-0-0-0-0-0-0---0-0-0-0-0-0-0---0-0-0-0-0-0-0-0-0-0-0------------
 1 e + a 2 e + a 3 e + a 4 e + a 1 e + a 2 e + a 3 e + a 4  e  +  a

-----------------------------------------------------------------
-----------------------------------------------------------------
-----------------------------------------------------------------
-9---------------8---------------10------------------------------
-7---------------6---------------8-------------------------------
---0-0-0-0-0-0-0---0-0-0-0-0-0-0---0-0-0-0-0-0-0-0-0-0-0-0-0-0-0-
 1 e + a 2 e + a 3 e + a 4 e + a 1 e + a 2 e + a 3 e + a 4 e + a

Riff 9
x 1
----------------------------------------------
----------------------------------------------
---------7----------------------7-------------
-10-9-10-----10-9-7-9---10-9-10-----10-9-7----
-------------------------------------------10-
----------------------------------------------

--------------------------------------------
------------------------------------------8-
---------7----------------------7---9-7-9---
-10-9-10-----10-9-7-9---10-9-10-------------
--------------------------------------------
--------------------------------------------

--------------------------------------------
--------------------------------------------
---------7--------------9-7-9-10---9-7----7-
-10-9-10-----10-9-7-9------------------10---
--------------------------------------------
--------------------------------------------

--------------------------------------------
-----------------------------------8--------
---------7----------7---9-7-9-10----10-9-10-
-10-9-10-----7-9-10-------------------------
--------------------------------------------
--------------------------------------------

Riff 10
x 1
------------------------------------------------------------------
-----------------------------------------------------7--------10v-
-7v---7-9-10-7-9-10-7-9-10-7-9-10-10---9---10p9-10-----10-9-------
------------------------------------------------------------------
------------------------------------------------------------------
------------------------------------------------------------------

all for now

© Авторские права на тексты, песни, видео и другую представленную информацию принадлежат правообладателям. Аккорды, табы, gtp и тексты песен взяты из открытых источников.
Возрастная категория сайта: 18+
Тексты некоторых песен могут содержать нецензурные выражения, брань.
© 2020 guitar-chords.ru