From The Cradle To Enslave

Учтите, бас здесь - ПЯТИСТРУННЫЙ

                                          3x
G||-------------------|-------------------||-------------------|
D||*------------------|------------------*||*------------------|
A||-------------------|-------------------||-------------------|
E||*------------------|------------------*||*------------------|
B||-------------------|-------------------||-------------------|

------------------|------------------|-------------------||
------------------|------------------|------------------*||
------------------|------------------|-------------------||
------------------|------------------|------------------*||
------------------|------------------|-------------------||

-----------------------|----------------------|----------------------|
*----------------------|----------------------|----------------------|
-----------------------|----------------------|----------------------|
*----------------------|----------------------|----------------------|
---3----3----3----3----|--3----3----3----3----|--0----0----0----0----|

----------------------|----------------------|----------------------|
----------------------|----------------------|----------------------|
----------------------|----------------------|----------------------|
----------------------|----------------------|----------------------|
--0----0----0----0----|--3----3----3----3----|--3----3----3----3----|

----------------------|-----------------------||-----------------------|
----------------------|----------------------*||*----------------------|
----------------------|--1----1----0----0-----||-----------------------|
----------------------|----------------------*||*----------------------|
--4----4----4----4----|-----------------------||---3----3----3----3----|

----------------------|----------------------|----------------------|
----------------------|----------------------|----------------------|
----------------------|----------------------|----------------------|
----------------------|--1----1----1----1----|--4----4----3----3----|
--3----3----3----3----|----------------------|----------------------|

----------------------|----------------------|----------------------|
----------------------|----------------------|----------------------|
----------------------|----------------------|----------------------|
----------------------|----------------------|--1----1----1----1----|
--3----3----3----3----|--3----3----3----3----|----------------------|

-----------------------||-----------------------|---------------------|
----------------------*||*----------------------|---------------------|
-----------------------||-----------------------|---------------------|
--4----4----3----3----*||*-------------1--------|----------1---0------|
-----------------------||---3--3----3-----------|------------------4--|

----------------------|----------------------||---------------------------|
----------------------|---------------------*||*--------------------------|
----------------------|----------------------||---------------------------|
-------------2--------|----------2---1---0--*||*--------------------------|
--3--3----3-----------|----------------------||---3--3--3--3--3--3--3--3--|

--------------------------|--------------------------|
--------------------------|--------------------------|
--------------------------|--------------------------|
--------------------------|--------------------------|
--3--3--3--3--3--3--3--3--|--3--3--3--3--3--3--3--3--|

---------------------------||-----------------------|---------------------|
--------------------------*||*----------------------|---------------------|
---------------------------||-----------------------|---------------------|
--------------------------*||*-------------1--------|----------1---0------|
--3--3--3--3--3--3--3--3---||---3--3----3-----------|------------------4--|

----------------------|----------------------||-----------------------|
----------------------|---------------------*||*----------------------|
----------------------|----------------------||-----------------------|
-------------2--------|----------2---1---0--*||*----------------------|
--3--3----3-----------|----------------------||---3----3----3----3----|

----------------------|----------------------|----------------------|
----------------------|----------------------|----------------------|
----------------------|----------------------|----------------------|
----------------------|----------------------|----------------------|
--3----3----3----3----|--6----6----6----6----|--9----9----8----8----|

----------------------|----------------------|----------------------|
----------------------|----------------------|----------------------|
----------------------|----------------------|----------------------|
----------------------|----------------------|----------------------|
--3----3----3----3----|--3----3----3----3----|--6----6----6----6----|

-----------------------||-------------------|------------------|
----------------------*||-------------------|------------------|
-----------------------||-------------------|------------------|
----------------------*||-------------------|------------------|
--9----9----8----8-----||--4----------------|------------------|

------------------|------------------|------------------|------------------|
------------------|------------------|------------------|------------------|
------------------|------------------|------------------|------------------|
------------------|------------------|------------------|------------------|
------------------|------------------|------------------|------------------|

------------------|------------------|---------------------|------------------|
------------------|------------------|---------------------|------------------|
------------------|------------------|---------------------|------------------|
------------------|------------------|--8------4--4--------|------------------|
------------------|------------------|---------------------|------------------|

----------------------|-------------------|---------------------|
----------------------|-------------------|---------------------|
----------------------|-------------------|---------------------|
--8------4--4------7--|--7----------------|--8------4--4--------|
----------------------|-------------------|---------------------|

------------------|-----------------------|--------------------|
------------------|-----------------------|--------------------|
------------------|-----------------------|--------------------|
------------------|--8------7--7------10--|--10----------------|
------------------|-----------------------|--------------------|

|----------------------|------------------|----------------------|
|*---------------------|------------------|----------------------|
|----------------------|------------------|----------------------|
|*--8------4--4--------|------------------|--8------4--4------7--|
|----------------------|------------------|----------------------|

-------------------|---------------------|------------------|
-------------------|---------------------|------------------|
-------------------|---------------------|------------------|
--7----------------|--8------4--4--------|------------------|
-------------------|---------------------|------------------|

-----------------------|---------------------||---------------------|
-----------------------|--------------------*||---------------------|
-----------------------|---------------------||---------------------|
--8------7--7------10--|--10----------------*||--9------5--5--------|
-----------------------|---------------------||---------------------|

------------------|----------------------|-------------------|
------------------|----------------------|-------------------|
------------------|----------------------|-------------------|
------------------|--9------5--5------8--|--8----------------|
------------------|----------------------|-------------------|

---------------------|------------------|-----------------------|
---------------------|------------------|-----------------------|
---------------------|------------------|-----------------------|
--9------5--5--------|------------------|--9------8--8------11--|
---------------------|------------------|-----------------------|

--------------------|---------------------|------------------|
--------------------|---------------------|------------------|
--------------------|---------------------|------------------|
--11----------------|--9------5--5--------|------------------|
--------------------|---------------------|------------------|

----------------------|-------------------|---------------------|
----------------------|-------------------|---------------------|
----------------------|-------------------|---------------------|
--9------5--5------8--|--8----------------|--9------5--5--------|
----------------------|-------------------|---------------------|

------------------|-----------------------|--------------------|
------------------|-----------------------|--------------------|
------------------|-----------------------|--------------------|
------------------|--9------8--8------11--|--11----------------|
------------------|-----------------------|--------------------|

---------------------|------------------|----------------------|
---------------------|------------------|----------------------|
---------------------|------------------|----------------------|
--9------5--5--------|------------------|--9------5--5------8--|
---------------------|------------------|----------------------|

-------------------|---------------------|------------------|
-------------------|---------------------|------------------|
-------------------|---------------------|------------------|
--8----------------|--9------5--5--------|------------------|
-------------------|---------------------|------------------|

-----------------------|--------------------|----------------------|
-----------------------|--------------------|----------------------|
-----------------------|--------------------|----------------------|
--9------8--8------11--|--11----------------|----------------------|
-----------------------|--------------------|--3----3----3----3----|

----------------------|----------------------|----------------------|
----------------------|----------------------|----------------------|
----------------------|----------------------|----------------------|
----------------------|----------------------|----------------------|
--3----3----3----3----|--6----6----6----6----|--9----9----8----8----|

----------------------|----------------------|----------------------|
----------------------|----------------------|----------------------|
----------------------|----------------------|----------------------|
----------------------|----------------------|----------------------|
--3----3----3----3----|--3----3----3----3----|--6----6----6----6----|

----------------------|----------------------|----------------------|
----------------------|----------------------|----------------------|
----------------------|----------------------|----------------------|
----------------------|----------------------|----------------------|
--9----9----8----8----|--3----3----3----3----|--3----3----3----3----|

----------------------|----------------------|----------------------|
----------------------|----------------------|----------------------|
----------------------|----------------------|----------------------|
----------------------|----------------------|----------------------|
--6----6----6----6----|--9----9----8----8----|--3----3----3----3----|

----------------------|----------------------|----------------------|
----------------------|----------------------|----------------------|
----------------------|----------------------|----------------------|
----------------------|----------------------|----------------------|
--3----3----3----3----|--6----6----6----6----|--9----9----8----8----|

----------------------|----------------------|----------------------|
----------------------|----------------------|----------------------|
----------------------|----------------------|----------------------|
----------------------|----------------------|----------------------|
--3----3----3----3----|--3----3----3----3----|--6----6----6----6----|

----------------------|----------------------|----------------------|
----------------------|----------------------|----------------------|
----------------------|----------------------|----------------------|
----------------------|----------------------|----------------------|
--9----9----8----8----|--3----3----3----3----|--3----3----3----3----|

----------------------|----------------------|----------------------|
----------------------|----------------------|----------------------|
----------------------|----------------------|----------------------|
----------------------|----------------------|----------------------|
--6----6----6----6----|--9----9----8----8----|--3----3----3----3----|

----------------------|----------------------|----------------------|
----------------------|----------------------|----------------------|
----------------------|----------------------|----------------------|
----------------------|----------------------|----------------------|
--3----3----3----3----|--6----6----6----6----|--9----9----8----8----|

----------------------|----------------------|----------------------|
----------------------|----------------------|----------------------|
----------------------|----------------------|----------------------|
----------------------|----------------------|----------------------|
--3----3----3----3----|--3----3----3----3----|--6----6----6----6----|

----------------------||-----------------------|----------------------|
----------------------||*----------------------|----------------------|
----------------------||-----------------------|----------------------|
----------------------||*----------------------|----------------------|
--9----9----8----8----||---3----3----3----3----|--3----3----3----3----|

----------------------|----------------------|----------------------|
----------------------|----------------------|----------------------|
----------------------|----------------------|----------------------|
----------------------|----------------------|----------------------|
--6----6----6----6----|--9----9----8----8----|--3----3----3----3----|
                                                                     3x
----------------------|----------------------|-----------------------||
----------------------|----------------------|----------------------*||
----------------------|----------------------|-----------------------||
----------------------|----------------------|----------------------*||
--3----3----3----3----|--6----6----6----6----|--9----9----8----8-----||

---------------------|---------------------|--------------------|
---------------------|---------------------|--------------------|
--5------------5--7--|--8------------7--5--|--4--------------5--|
---------------------|---------------------|--------------------|
---------------------|---------------------|--------------------|

-------------------|---------------------|----------------------|
-------------------|---------------------|---------5--7----5----|
--0----------------|--5------------5--7--|--8-------------------|
-------------------|---------------------|----------------------|
-------------------|---------------------|----------------------|

--3--------------7--|--2------3--0---------|---------------------|
--------------------|-------------------3--|---------------------|
--------------------|----------------------|--5------------5--7--|
--------------------|----------------------|---------------------|
--------------------|----------------------|---------------------|

---------------------|--------------------|-------------------|
---------------------|--------------------|-------------------|
--8------------7--5--|--4--------------5--|--0----------------|
---------------------|--------------------|-------------------|
---------------------|--------------------|-------------------|

---------------------|----------------------|--3--------------7--|
---------------------|---------5--7----5----|--------------------|
--5------------5--7--|--8-------------------|--------------------|
---------------------|----------------------|--------------------|
---------------------|----------------------|--------------------|

--2------3--0---------||----------------------|---------------------|
-------------------3--||*---------------------|---------------------|
----------------------||---5------------5--7--|--8------------7--5--|
----------------------||*---------------------|---------------------|
----------------------||----------------------|---------------------|

--------------------|-------------------|---------------------|
--------------------|-------------------|---------------------|
--4--------------5--|--0----------------|--5------------5--7--|
--------------------|-------------------|---------------------|
--------------------|-------------------|---------------------|

----------------------|--3--------------7--|--2------3--0----------||
---------5--7----5----|--------------------|-------------------3--*||
--8-------------------|--------------------|-----------------------||
----------------------|--------------------|----------------------*||
----------------------|--------------------|-----------------------||

© Авторские права на тексты, песни, видео и другую представленную информацию принадлежат правообладателям. Аккорды, табы, gtp и тексты песен взяты из открытых источников.
Возрастная категория сайта: 18+
Тексты некоторых песен могут содержать нецензурные выражения, брань.
© 2020 guitar-chords.ru