Intro:        
e----7\8-7-5\7--3\5\2--3\2----------
B--------------------------3-3\5~~~-
G-----------------------------------
D-----------------------------------
A-----------------------------------
E-----------------------------------

... chords posted before

End:        
e--7\8--7-5\7-|-7\8-7-5\7-7-7-7-|
A-------------|-----------------|
G-------------|-----------------|
D-------------|-----------------|
A-------------|-----------------|
E-------------|-----------------|
              \ repeat 3 times  /

e--\5-3\5-|-7\5-3\5-7-7-7-|---------
A---------|---------------|---------
G---------|---------------|---------
D---------|---------------|---------
A---------|---------------|---------
E---------|---------------|---------
          \repeat 3 times /

                          gets difficult to work out here
e--7-7-5-5-3-3-5-5-3-3\2------------
B-----------------------------------
G-----------------------------------
D-----------------------------------
A-----------------------------------
E-----------------------------------


© Авторские права на тексты, песни, видео и другую представленную информацию принадлежат правообладателям. Аккорды, табы, gtp и тексты песен взяты из открытых источников.
Возрастная категория сайта: 18+
Тексты некоторых песен могут содержать нецензурные выражения, брань.
© 2020 guitar-chords.ru