Better Than Anything

Intro:        
e----------------------------------------------------------
B----------------------------------------------------------
G---------------------3-------1-----------------------3-3--
D-----1-4-----1-4-4-4---4-2-2---2-----1-4-----1-4-4-4------
A-2-2-----2-2---------------------2-2-----2-2--------------
E----------------------------------------------------------
(con't.)
e-----------------------------------------------------------
B-0-0-2--------------------------------------------------0-2
G----------------------------3-------1-----------------3----
D------------1-4-----1-4-4-4---4-2-2---2-----1-4-1-2-4------
A--------2-2-----2-2---------------------2-2----------------
E-----------------------------------------------------------

Verse: (Played 8x)
    B   F#  E 
e---7---6---7---
B---7---7---9---
G---8---6---9---
D---9-------9---
A---------------
E---------------

Break: (Played 2x)
    G   A 
e---3---5---
B---3---7---
G---4---7---
D---5---7---
A-----------
E-----------

Chorus:
    A   D   E 
e---5---2---4---
B---5---3---5---
G---6---2---4---
D---7-----------
A---------------
E---------------

Order: Intro, Verse, Break, Verse, Chorus, Verse chords over horn solo,
Break, Verse, Chorus, Chorus.

Lyrics:        
As I was walking on the bridge the other day, I thought I saw you but you
ducked and drove away. I could've sworn you told me you were gonna be out
of town. I wanted to make sure but I couldn't track you down. And then
the other night I tried to surprise you at your work, but the guys in
your office said you'd gone home with a smirk. Funny thing, you weren't
at home and I began to sense a change. It was then I figured out that
something was a little strange.
For so long, I thought you were better than anything, but now I realize
that you're not the way you seem. You must've thought that I was much too
dumb to figure out that you're a lying cheat that's always running about.
Like all those nights you told me you were going out with the guys. Did
you think I'd believe you after you told 26 lies?

Другие песни этого исполнителя/группы


© Авторские права на тексты, песни, видео и другую представленную информацию принадлежат правообладателям. Аккорды, табы, gtp и тексты песен взяты из открытых источников.
Возрастная категория сайта: 18+
Тексты некоторых песен могут содержать нецензурные выражения, брань.
© 2020 guitar-chords.ru