Dear Abby

e-|----------------------|-----------------------------------
B-|----------------------|-----------------------------------
G-|----------------------|-----------8-9-10-----------8-9-10-
D-|-9-9-7-7-4--9-9-7-7-4-|-9-9-7-7-9-8-9-10-9-9-7-7-9-8-9-10-
A-|-9-9-7-7-4--9-9-7-7-4-|-9-9-7-7-9-6-7--8-9-9-7-7-9-6-7--8-
E-|-7-7-5-5-2--7-7-5-5-2-|-7-7-5-5-7--------7-7-5-5-7--------

e-|---------------------------------------------------------------------|
B-|---------------------------------------------------------------------|
G-|-----------8-9-10-----------8-9-10-----------8-9-10-----------8-9-10-|
D-|-9-9-7-7-9-8-9-10-9-9-7-7-9-8-9-10-9-9-7-7-9-8-9-10-9-9-7-7-9-8-9-10-|
A-|-9-9-7-7-9-6-7--8-9-9-7-7-9-6-7--8-9-9-7-7-9-6-7--8-9-9-7-7-9-6-7--8-|
E-|-7-7-5-5-7--------7-7-5-5-7--------7-7-5-5-7--------7-7-5-5-7--------|

e-|---------------------------------------------
B-|---------------------------------------------
G-|-9-9-7-7-7-9-9-9-7-7-7-9-9-7-7-7-9-9-9-7-7-7-
D-|-9-9-7-7-7-9-9-9-7-7-7-9-9-7-7-7-9-9-9-7-7-7-
A-|-7-7-5-5-5-7-7-7-5-5-5-7-7-5-5-5-7-7-7-5-5-5-
E-|---------------------------------------------

e-|-----------------------------------------------------|
B-|-----------------------------------------------------|
G-|------------------------------------------11--9-9-9--|
D-|-9-9-7-7-7-9-9-7-7-7-9-9-7-7-7-9-9-7-7-7--11--9-9-9--|
A-|-9-9-7-7-7-9-9-7-7-7-9-9-7-7-7-9-9-7-7-7---9--7-7-7--|
E-|-7-7-5-5-5-7-7-5-5-5-7-7-5-5-5-7-7-5-5-5-------------|

this repeats... except theres some "solo" that uses about 6 notes but I
didn't even bother with it cause I play something completly different
during the solo... the dear reganomics victim part is slightly
different... its the same riff but it just doesn't go through the entire
verse... its easy to hear what the guitars doing so I'm not gonna tab
that part out just cause I"m too damn lazy


© Авторские права на тексты, песни, видео и другую представленную информацию принадлежат правообладателям. Аккорды, табы, gtp и тексты песен взяты из открытых источников.
Возрастная категория сайта: 18+
Тексты некоторых песен могут содержать нецензурные выражения, брань.
© 2021 guitar-chords.ru