The Landlord...

Verse:        
e-|------------------------------------------------------|
B-|------------------------------------------------------|
G-|-------------------4-4-2-2--------------------4-4-2-2-|
D-|-4-4-4-2-2-2-4-4-4-4-4-2-2--4-4-4-2-2-2-4-4-4-4-4-2-2-|
A-|-4-4-4-2-2-2-4-4-4-2-2-0-0--4-4-4-2-2-2-4-4-4-2-2-0-0-|
E-|-2-2-2-0-0-0-2-2-2----------2-2-2-0-0-0-2-2-2---------|

Chorus:        
e-|-----------------------------------------------------------|
B-|-----------------------------------------------------------|
G-|---------------------------------------------------4-4-2-2-|
D-|-9-9-9-9-9-9-9-9-7-7-7-7-7-7-7-7-4-4-4-2-2-2-4-4-4-4-4-2-2-|
A-|-9-9-9-9-9-9-9-9-7-7-7-7-7-7-7-7-4-4-4-2-2-2-4-4-4-2-2-0-0-|
E-|-7-7-7-7-7-7-7-7-5-5-5-5-5-5-5-5-2-2-2-0-0-0-2-2-2---------|

e-|------------------------------------------------------------|
B-|------------------------------------------------------------|
G-|------------------------------------------------------------|
D-|-9-9-9-9-9-9-9-9-7-7-7-7-7-7-7-7-11-11-11-11-11-11-11-11-11-|
A-|-9-9-9-9-9-9-9-9-7-7-7-7-7-7-7-7-11-11-11-11-11-11-11-11-11-|
E-|-7-7-7-7-7-7-7-7-5-5-5-5-5-5-5-5--9--9--9--9--9--9--9--9--9-|

e-|-----------|
B-|-----------|
G-|-----------|
D-|-11-11-11--|
A-|-11-11-11--|
E-|--9--9--9--|

after the first chorus the chorus ends like this below...

e-|--------------------------------------------------------------------
B-|--------------------------------------------------------------------
G-|--------------------------------------------------------------------
D-|-11-11-11-11--9-7-11-11-11-11-9-7-11-11-11-11-9-7-4-4-4-2-2-2-4-4-4-
A-|-11-11-11-11--9-7-11-11-11-11-9-7-11-11-11-11-9-7-4-4-4-2-2-2-4-4-4- etc
E-|--9--9--9--9--7-5--9--9--9--9-7-5--9--9--9--9-7-5-2-2-2-0-0-0-2-2-2-

solo chords...(well most of them)

e-|---------------------------------------------------
B-|---------------------------------------------------
D-|---------------------------------------------------
G-|-9-9-9-7-7-7-9-9-9-7-7-7-9-9-9-7-7-7-9-9-9-9-9-9-9-
A-|-9-9-9-7-7-7-9-9-9-7-7-7-9-9-9-7-7-7-9-9-9-9-9-9-9-
E-|-7-7-7-5-5-5-7-7-7-5-5-5-7-7-7-5-5-5-7-7-7-7-7-7-7-

e-|-------------------------------------------------------------------
B-|-------------------------------------------------------------------
G-|-------------------------------------------------------------------
D-|-11-11-11-9-9-9-11-11-11-9-9-9-11-11-11-9-9-9-11-11-11-11-11-11-11-
A-|-11-11-11-9-9-9-11-11-11-9-9-9-11-11-11-9-9-9-11-11-11-11-11-11-11-
E-|--9--9--9-7-7-7--9--9--9-7-7-7--9--9--9-7-7-7--9--9--9--9--9--9--9-

Than it does something oblivious to me... I don't know what
chords hes playing but he ends the solo with these chords...

e-|-------------------------------------------------------------
B-|-------------------------------------------------------------
G-|-------------------------------------------------------------
D-|-11-11-11-11-9-9-8-8-11-11-11-11-9-9-8-8-11-11-11-11-9-9-8-8-
A-|-11-11-11-11-9-9-8-8-11-11-11-11-9-9-8-8-11-11-11-11-9-9-8-8-
E-|--9--9--9--9-7-7-6-6--9--9--9--9-7-7-6-6--9--9--9--9-7-7-6-6-


© Авторские права на тексты, песни, видео и другую представленную информацию принадлежат правообладателям. Аккорды, табы, gtp и тексты песен взяты из открытых источников.
Возрастная категория сайта: 18+
Тексты некоторых песен могут содержать нецензурные выражения, брань.
© 2020 guitar-chords.ru