One Way Ticket To Pluto

e-----------------------------------------------------------------------------
B-----------------------------------------------------------------------------
G----------------7-7-------------------7-7------------------------------------
D--7-7-7-7--5-5--7-7-----7-7-7-7--5-5--7-7------------------------------------
A--7-7-7-7--5-5--5-5-----7-7-7-7--5-5--5-5------------------------------------
E--5-5-5-5--3-3----------5-5-5-5--3-3-----------------------------------------

e-----------------------------------------------------------------------------
B-----------------------------------------------------------------------------
G-------------7-7-------------7-7-------------7-7-----------------------------
D-7-7-7-7-5-5-7-7-7-7-7-7-5-5-7-7-7-7-7-7-5-5-7-7-7-7-7-7-7-7-7-7-------------
A-7-7-7-7-5-5-5-5-7-7-7-7-5-5-5-5-7-7-7-7-5-5-5-5-7-7-7-7-7-7-7-7-------------
E-5-5-5-5-3-3-----5-5-5-5-3-3-----5-5-5-5-3-3-----5-5-5-5-5-5-5-5-------------
...countdown get ready for the blastoff...
e-----------------------------------------------------------------------------
B-----------------------------------------------------------------------------
G-7-7-7-7-5-5-----7-7-7-7-5-5-----------------5-5-----------------------------
D-7-7-7-7-5-5-5-5-7-7-7-7-5-5-5-5-7-7-7-7-5-5-5-5-7-7-7-7-7-7-7-7-------------
A-5-5-5-5-3-3-5-5-5-5-5-5-3-3-5-5-7-7-7-7-5-5-3-3-7-7-7-7-7-7-7-7-------------
E-------------3-3-------------3-3-5-5-5-5-3-3-----5-5-5-5-5-5-5-5-------------
...distinguished scientists a pesky senator...
e-----------------------------------------------------------------------------
B-----------------------------------------------------------------------------
G-9-9-9-9-9-9-9-9-7-7-7-7-7-7-7-7-------------5-5-----------------------------
D-9-9-9-9-9-9-9-9-7-7-7-7-7-7-7-7-7-7-7-7-5-5-5-5-7-7-7-7-7-7-7-7-------------
A-7-7-7-7-7-7-7-7-5-5-5-5-5-5-5-5-7-7-7-7-5-5-3-3-7-7-7-7-7-7-7-7-------------
E---------------------------------5-5-5-5-3-3-----5-5-5-5-5-5-5-5-------------
...all brought to you play by play...
e-----------------------------------------------------------------------------
B-----------------------------------------------------------------------------
G-----------7-7-7-7-7-5-5-5-5-5---------------------7-7-7-7-7-5-5-5-5-5-------
D-7-7-7-7-7-7-7-7-7-7-5-5-5-5-5-7-7-7-7-7-7-7-7-7-7-7-7-7-7-7-5-5-5-5-5-------
A-7-7-7-7-7-5-5-5-5-5-3-3-3-3-3-7-7-7-7-7-7-7-7-7-7-5-5-5-5-5-3-3-3-3-3-------
E-5-5-5-5-5---------------------5-5-5-5-5-5-5-5-5-5---------------------------
...you're going where no man has gone before...
e-----------------------------------------------------------------------------
B-----------------------------------------------------------------------------
G-----------------------------------------------------------------------------
D-7-7-7-7-7-7-7-7-7-7---------------------------------------------------------
A-7-7-7-7-7-7-7-7-7-7---------------------------------------------------------
E-5-5-5-5-5-5-5-5-5-5---------------------------------------------------------
...and besides you're bright...

The rest of the song basically repeats except the solo which I don't know...


© Авторские права на тексты, песни, видео и другую представленную информацию принадлежат правообладателям. Аккорды, табы, gtp и тексты песен взяты из открытых источников.
Возрастная категория сайта: 18+
Тексты некоторых песен могут содержать нецензурные выражения, брань.
© 2020 guitar-chords.ru