Deep Purple in Rock (1970)
Bloodsucker
(Blackmore/Gillian/Glover/Lord/Paice)

Riff I (Intro):
e|-----------------------------------|
b|-----------------------------------|
g|-----------------------------------|
d|-----------------------------------|
a|-------5-------------------5-------|
E|-5-6-7---6-5-3-------5-6-7---6-5-3-|

Riff II (Verse):
e|------------------------------------------------------------------|
b|------------------------------------------------------------------|
g|------------------------------------------------------------------|
d|------------------------------------------------------------------|
a|--------------------5--4--3-------------------------------5-------|
E|-0---0-0-0---0-0-0--3--2--1------0---0-0-0---0-0-0- 5-6-7---6-5-3-|
play a few times
last time end after the descending part (3 2 1) and play:
e|-------|
b|-------|
g|-------|
d|-------|
a|--2-2--|
E|--0-0--|

Riff III (Chorus):
e|--------------------------------------------------------------------|
b|--------------------------------------------------------------------|
g|--------------------------9-7---------------------------------------|
d|--7-9-7----7------------------9-7-------7-9-7----7------------------|
a|--------10---10-7----7------------10----------10---10-7----7-10--5--|
E|------------------10------------------------------------10----------|

e|--------------------------------------------------------------|
b|--------------------------------------------------------------|
g|--------------------------9-7--------------7-----7-----7------|
d|--7/9-7----7------------------9-7------7-9---7-9---7-9---7-9--|
a|--------10---10-7----7------------10--------------------------|
E|------------------10------------------------------------------|

e|--------------------------------------------|
b|--------------------------------------------|
g|--9----7----5----2--------------------------|
d|--9----7----5----2----5---------------------|
a|----------------------5------------5--------|
E|-----------------------------5-6-7---6-5-3--|

    organ arr. for guitar
    (guitar plays only the 9 on the g string)

Riff IV (Before and between the solos):
e|-------------------------------------------|
b|-------------------------------------------|
g|-------------------------------------------|
d|----------5--------5-----------------------|
a|--7-5---5---7----5---7-7-7-----------------|
E|------7-----------------------7-6--5--0-3--|

Lyrics:        
Gotta black breast Chinese eyes
Got an English brain that's gonna make me wise
Got a long story that I wanna tell
To a rhythm that I know so well
Really got a lot of lovin' that I wanna give
Baby I'm a mystery but you know I gotta live
I tried another but she didn't want to know
Aaaah - no, no, no!
Take a hold now if you can
Take a lesson from a hard lovin' man
I'm a long way from where I wanna go
Guess I'll stay awhile I really love you so
How's about another sip of all the wine you got
Take a tip from me and give it here I'll drink the lot
I'm not a winey, I'm a puttin' on a show
Aaaah - no, no, no!
You really really grab me but I've gotta move
Before they know I'm here and spread the news
Maybe in a while when I've moved around
I can find a way to pay you back your twenty pounds
Really got a lot of lovin' that I wanna give
Baby I'm a mystery but you know I gotta live
I tried another but she didn't want to know
Aaaah - no, no, no!


© Авторские права на тексты, песни, видео и другую представленную информацию принадлежат правообладателям. Аккорды, табы, gtp и тексты песен взяты из открытых источников.
Возрастная категория сайта: 18+
Тексты некоторых песен могут содержать нецензурные выражения, брань.
© 2020 guitar-chords.ru