|--------------------------|-----------------------|-------------------------|
|--------------------------|-----------------------|-------------------------|
|*-------------------------|-----------------------|-------------------------|
|*-------------------------|-----------------------|----------------------5--|
|--------1-----1--3-----5--|------3-----1--3-------|-------1-----1--3--------|
|---3-------3--------3-----|---------3--------3----|--3-------3--------3-----|

------------------------|-------------------------|-----------------------|
------------------------|-------------------------|-----------------------|
------------------------|-------------------------|-----------------------|
------3-----------------|-------------------------|-----------------------|
---------5--3--5--3--1--|-------1-----1--3-----5--|------3-----1--3--1----|
------------------------|--3-------3--------3-----|---------3-------------|
99x
---------------------|---------------------|-------||
---------------------|---------------------|-------||
---------------------|----5------8----7----|------*||
----------------5----|---------------------|------*||
--3------6-----------|---------------------|-------||
---------------------|---------------------|-------||

© Авторские права на тексты, песни, видео и другую представленную информацию принадлежат правообладателям. Аккорды, табы, gtp и тексты песен взяты из открытых источников.
Возрастная категория сайта: 18+
Тексты некоторых песен могут содержать нецензурные выражения, брань.
© 2020 guitar-chords.ru