"Slaves and Masters" (1990)
Love Conquers All
(Blackmore/Glover/Turner)

Solo:        
E|-------------------------------------------------------------------------------
B|--------------------------------------------------12-13~~-----13-15-/15-13-----
G|--------------------9-10-9~~----9-10-10/12-12-/14---------/14------------------
D|-7-9-10-10~~-10-/12----------12------------------------------------------------
A|-------------------------------------------------------------------------------
e|-------------------------------------------------------------------------------

E|--17-17-15----15---------------------------------------------------------------
B|-----------17----15~~~---------------------------------------------------------
G|-------------------------------------------------------------------------------
D|-------------------------------------------------------------------------------
A|-------------------------------------------------------------------------------
e|-------------------------------------------------------------------------------

© Авторские права на тексты, песни, видео и другую представленную информацию принадлежат правообладателям. Аккорды, табы, gtp и тексты песен взяты из открытых источников.
Возрастная категория сайта: 18+
Тексты некоторых песен могут содержать нецензурные выражения, брань.
© 2020 guitar-chords.ru