#табулатура

    "In Concert" (1972), "Made In Japan" (Remastered) (1972)
Lucille
(Richard)

|-----------------|
|-----------------|
|-----------------|
|---------5---7-5-| } x4
|-----5-7---------|
|--7-7------------|
then
|-----------------|
|-----------------|
|---------5---7-5-| } x2
|-----5-7---------|
|--7-7------------|
|-----------------|
and then
|-----------------|
|-----------------|
|-----------------|
|---------5---7-5-| } x2
|-----5-7---------|
|--7-7------------|

© Авторские права на тексты, песни, видео и другую представленную информацию принадлежат правообладателям. Аккорды, табы, gtp и тексты песен взяты из открытых источников.
Возрастная категория сайта: 18+
Тексты некоторых песен могут содержать нецензурные выражения, брань.
© 2020 guitar-chords.ru