#табулатура

    "Burn" (1974)
Mistreated

|------------------------------------------------------|
|------------------------------------------------------|
|--2------------------------------6b--4b---------------|
|-----4~------2--4~------2--4~-------------------------|
|------------------------------------------------------|
|----------2----------2--------------------------------|

|------------------------------------------------------|
|------------------------------------------------------|
|--2------------------------------2b-------------------|
|-----4~------2--4~------2--4~-------------------------|
|------------------------------------------------------|
|----------2----------2--------------------------------|

© Авторские права на тексты, песни, видео и другую представленную информацию принадлежат правообладателям. Аккорды, табы, gtp и тексты песен взяты из открытых источников.
Возрастная категория сайта: 18+
Тексты некоторых песен могут содержать нецензурные выражения, брань.
© 2020 guitar-chords.ru