#табулатура

    "The Battle Rages on..." (1993)
Solitaire
(Blackmore/Gillan/Glover/Lord/Paice)

INTRO
N.C 
----------------|----------------|
----(both guitars)---------------|
----------------|----------------|
5-----3-----1---|3-----1-----0---|
----------------|----------------|
----------------|----------------|
 Gm                                                 Eb/G ??? 
                         guitar 1 (rhy.fig.B)
|----------------|----------------|----------------|----------------|
|----------------|----------------|----------------|----------------|
|.-----3-2-------|----------------|Z-----3-2-------|---------------.|
|.-----------5---|----------------|------------5---|---------------.|
|----------------|5---------------|----------------|6---------------|
|----------------|----------------|----------------|----------------|
|                                                                   |
|                        guitar 2 (rhy.fig.A)                       |
|----------------|-------(muted throughout)--------|----------------|
|----------------|----------------|----------------|-----??????-----|
|.---------------|----------------|----------------|---------------.|
|.---5-z-----5-z-|----5-z-----5---|----5-Z-----5-z-|----5-z-----5-z.|
|--5-------5-----|--5-------5-----|--5-------5-----|--6-------6-----|
|3---------------|3---------------|3---------------|3---------------|

VERSE
Gm  (w/rhy.fig.A)                 Eb /G 
|               |                 |                |                 |
Door            don't close the door                I want to feel the
Gm  (w/1st half of rhy.fig.A)       F 
|               |                 |                |                 |
 cold            I want to see  the light
Gm  (w/rhy.fig.A & B)
|               |                 |                |                 |
Mama                     where you gone                    this is no
Gm  (1/2*fig.A & fill 1)            F 
|               |                 |                |                 |
 dream               Can't make it right if it's wrong

PRECHORUS
 Dm               Eb5   C5         Dm                Eb5   C5 
|               |                 |                |                 |
     You're dancing with strangers        You're fighting with friends

CHORUS
Gm          F    Bb    C          Gm          F    Eb      F 
----------------|----------------|----------------|----------------|
----------------|----------------|----------------|----------------|
12----1212--10--|----------------|12----1212--10--|8-10--12-10-----|
12----1212--10--|8-----1010------|12----1212--10--|----------------|
10----1010--8---|8-----1010------|10----1010--8---|6-8---10-8------|
----------------|6-----8-8-------|----------------|----------------|
         It's a matter of time           between love and despair
Gm          F    Bb    C          Eb               F 
----------------|----------------|----------------|----------------|
----------------|----------------|----------------|----------------|
12----1212--10--|----------------|----------------|----------------|
12----1212--10--|8-----1010------|----------------|----------------|
10----1010--8---|8-----1010------|1---------------|3---1-0---------|
----------------|6-----8-8-------|----------------|----------------|
         Falling over the line    Empty  hearts and icy stares
Eb      F/C ??   Gm               F                Gm 
----------------|-(half time)----|----------------|----------------|
----------------|----------------|----------------|----------------|
8-------2-???---|----------------|----------------|----------------|
8-------3-???---|5---------------|3---------------|5---------------|
6-------0-???---|5---------------|3---------------|5---------------|
----------------|3---------------|1---------------|3---------------|
Oh      call me  solitaire               Oh-oh-o-o-oh
N.C 
----------------|----------------|
----------------|----------------|
----(both guitars)---------------|
----------------|----------------|
5-----3-----1---|3-----1-----0---|
----------------|----------------|

VERSE 2:
The eyes/In the face on the wall/Follow me round the room/Follow me everywhere
A heart/Without an echo/A man without a child/Alone with my sorrow

PRECHORUS
CHORUS

ORGAN SOLO
Dm               Eb    F     Gm  (1.Dm             Bb     C        ) 
 ----------------|----------------|----------------|----------------|
 ----------------|----------------|----------------|----------------|
.7-----7-7-------|8-----10----12--|7-----7-7-------|3------5-------.|
.7-----7-7-------|8-----10----12--|7-----7-7-------|3------5-------.|
 5-----5-5-------|6-----8-----10--|5-----5-5-------|1------3--------|
 ----------------|----------------|----------------|----------------|
 2.Dm               Eb  C            Dm  Bb 
----------------|----------------|----------------|
----------------|----------------|----------------|
7---------------|z-8-8-5-5-------|z-7-7-3-3-------|
7---------------|z-8-8-5-5-------|z-7-7-3-3-------|
5---------------|z-6-6-3-3-------|z-5-5-1-1-------|
----------------|----------------|----------------|

CHORUS

****************************
Fill 1
Gm                                F 
----------------|----------------|-------------P--|----------------|
----------------|----------------|----------------|----------------|
------3-2-------|7---------8---7-|5-----------20--|----------------|
------------5---|----------------|--------------3-|----------------|
----------------|----------------|----------------|----------------|
----------------|----------------|----------------|----------------|

Fill 2
(F)             (Gm) 
----------------|----------------|
----------------|----------------|
--------2-3-2---|----------------|
--------------3-|5---------------|
----------------|----------------|
----------------|----------------|

© Авторские права на тексты, песни, видео и другую представленную информацию принадлежат правообладателям. Аккорды, табы, gtp и тексты песен взяты из открытых источников.
Возрастная категория сайта: 18+
Тексты некоторых песен могут содержать нецензурные выражения, брань.
© 2020 guitar-chords.ru