#табулатура

    "Perfect Strangers" (1984)
Wasted Sunsets
(Blackmore/Gillan/Glover)

(1' Solo)
E||------------8(10)-8-|--7-8-7-5---5--------5-----------|
B||--------------------|----------8---8(10)----8-6-5-6-5-|
G||--------------------|---------------------------------|
D||--------------------|---------------------------------|
A||--------------------|---------------------------------|
E||--------------------|---------------------------------|

----------------------10-|---12-13---12(13)12-10----12(13)12-------|
---------------------x---|-----------------------------------------|
--7(9)7---5-5\7~----x----|-----------------------------------------|
-------------------x-----|-----------------------------------------|
-------------------------|-----------------------------------------|
-------------------------|-----------------------------------------|

10(12)---9-10-9-7---------15(17)|-15(17)(17)(17)(17)(17) 15(17) |------------------------|
------------------9-------------|-------------------------------|--15(17)--15(18)--15----|
--------------------9~----------|-------------------------------|------------------------|
--------------------------------|-------------------------------|------------------------|
--------------------------------|-------------------------------|------------------------|
--------------------------------|-------------------------------|------------------------|

|---13--15---13-15-13---12-13-12---10-12-10---8-10-8---7-8-7---5-7-5-|
|--x-----------------------------------------------------------------|
|-x------------------------------------------------------------------|
|x-------------------------------------------------------------------|
|--------------------------------------------------------------------|
|--------------------------------------------------------------------|

--4-5-4-5--7--5-5-7--5--4--4--|
------------------------------|
------------------------------|
------------------------------|
------------------------------|
------------------------------|

|-----------------------------------------------------------------------------------|
|-5-6\8--6-8-6-8-6-8-6-8-6-8-6-8-6-8---6--5-------5-------5(6)--5-3-5-3-5-3-5-3-----|
|--------------------------------------------5\7-----7------------------------------|
|-----------------------------------------------------------------------------------|
|-----------------------------------------------------------------------------------|
|-----------------------------------------------------------------------------------|

|-------------------------------------------------------------------------7-8-7-----|
|-------3-5--3\5---7\8--7-8-7-8-7-8-7-8-7-8-7-8----------------10(13)---------------|
|---4-5--------------------------------------------10-8-8---------------------------|
|-----------------------------------------------------------------------------------|
|-----------------------------------------------------------------------------------|
|-----------------------------------------------------------------------------------|

|-----15(17)(17)15--12--17-15-17----15---12-15---15-13--12-----12-13-12-------------|
|-10-------------------------------------------------------15------------13(15)(16)-|
|-----------------------------------------------------------------------------------|
|-----------------------------------------------------------------------------------|
|-----------------------------------------------------------------------------------|
|-----------------------------------------------------------------------------------|

|------------------------------------------------------------------------------------------15(17)~~~||
|--15(17)15--13--15(17)--15(17)--(15)13-----12-13-12-----12\10----10-----12-13-12-13-15-13----------||
|---------------------------------------14-----------14---------12----12----------------------------||
|---------------------------------------------------------------------------------------------------||
|---------------------------------------------------------------------------------------------------||
|---------------------------------------------------------------------------------------------------||

© Авторские права на тексты, песни, видео и другую представленную информацию принадлежат правообладателям. Аккорды, табы, gtp и тексты песен взяты из открытых источников.
Возрастная категория сайта: 18+
Тексты некоторых песен могут содержать нецензурные выражения, брань.
© 2020 guitar-chords.ru