"Never Before" (1972)
When A Blind Man Cries
(Blackmore/Gillan/Glover/Lord/Paice)

Now included on the remastered CD of "Machine Head".

Solo:        
E----------------------------------------------------------------------------------------------------
B----------------------------------------------10---7-(8)-7---------------------------------------
G-----7---9-(10)--9-(10)--9-(10)--9-(10) ~-------------------7---9-(10)--9-(10)--9-(10)--9-(10) ~ --
D--9-----------------------------------------------------------------------------------------
A-----------------------------------------------------------------------------------------------
E---------------------------------------------------------------------------------------------------

E--------------------------------------------------------------------------------------------------
B--7-(8)-7-------------------------------7---10---10-(12)--10-(12)--10-(12)--10-(12)--10-(12)--10-(12)~--
G------------7--6--7---9~--7--6--4-------------------------------------------------------------------
D---------------------------------------------------------------------------------------------------
A-----------------------------------------------------------------------------------------------------
E--------------------------------------------------------------------------------------------------

E-----------7----10---10-(12)---10--9---7-----5-------7--------------------------------------------
B-7--10------------------------------------7----6/7------7----------5----3h5p3---------------
G----------------------------------------------------------7----4---------------6---7--7-(9)-7--9--7---9-
D------------------------------------------------------------------------------------------------------
A-------------------------------------------------------------------------------------------------
E----------------------------------------------------------------------------------------------------

E------------------------------------------------------------------------------------------------------
B------------------------------------------------------------------------------------------------------
G-----7---9-(10)--9-(10)--9-(10)--9-(10)--------7----9-(10)--9-(10)--9-(10)--9-(10)-------
D--9------------------------------------------9----------------------------------------------------
A-----------------------------------------------------------------------------------------------------
E-------------------------------------------------------------------------------------------------------

E-----------10---------------------10--------------------------10/12--10--12--10--12--10--12--10-------
B-10-(12)-------10-(12)---10-(12)-----10-(12)--10-(12)--10-(12)----------------------------------12--10--
G-------------------------------------------------------------------------------------------------------
D-------------------------------------------------------------------------------------------------------
A-------------------------------------------------------------------------------------------------------
E------------------------------------------------------------------------------------------------------

E----------------------------------------------------------------------------12-(14)--12-(14)---10------
B-------------------10-------------7----------------------------------10-(11)----------------------12---
G---9-(10)--9-(10)~----11-(12)---------9--7------7----9---7-------7-----------------------------------
D-------------------------------12-----------9---------------9------------------------
A----------------------------------------------------------------------------------------------------
E--------------------------------------------------------------------------------------------------------


© Авторские права на тексты, песни, видео и другую представленную информацию принадлежат правообладателям. Аккорды, табы, gtp и тексты песен взяты из открытых источников.
Возрастная категория сайта: 18+
Тексты некоторых песен могут содержать нецензурные выражения, брань.
© 2020 guitar-chords.ru