#табулатура

    "The Book of Taliesyn" (1968)
Wring That Neck
(Blackmore/Evans/Lord/Paice)

E||------------------------||---6--3--------------------|
B||---------------3-6-3----||------------------3h6h3----|
G||------------0--------0--||*--------------0--------0--|
D||------------------------||*--------------------------|
A||------------------------||---------------------------|
E||------------------------||---------------------------|

--6--3--------------------|--6--3-----------6--3-----------|
-----------------3h6h3----|--------3h6h3----------3h6h3----|
--------------0--------0--|--------------0--------------0--|
--------------------------|--------------------------------|
--------------------------|--------------------------------|
--------------------------|--------------------------------|

--6--3-----------------6--|--9/-8h-6--8--6-------------6--|
-----------------6--8-----|----------------------6--8-----|
--------------7-----------|-------------------7-----------|
--------------------------|-------------------------------|
--------------------------|-------------------------------|
--------------------------|-------------------------------|

--9/-8h-6--8--6----------------|--4h-3-----3-------------------|
-------------------------3--6--|--------6-----6----------3--6--|
-------------------0--3--------|-------------------0--3--------|
-------------------------------|-------------------------------|
-------------------------------|-------------------------------|
-------------------------------|-------------------------------|

-------------------------|-----------------------------3--4--6--|
--5--3-------------------|--------------------3--4--6-----------|
--------5--3--2----------|-----------2--3--5--------------------|
-------------------------|--1--3--5-----------------------------|
-------------------------|--------------------------------------|
-------------------------|--------------------------------------|

--5~---------------|-----------------------------3--4--6--|--5~---------------|
-------------------|--------------------3--4--6-----------|-------------------|
-------------------|-----------2--3--5--------------------|-------------------|
-------------------|--1--3--5-----------------------------|-------------------|
-------------------|--------------------------------------|-------------------|
-------------------|--------------------------------------|-------------------|

-------------------------|-------------------------------|
--8----6-----6-----------|-------------------------------|
----------7-----7--5--7--|-------3--5--7--5--3-----------|
-------------------------|----7-----------------7--5--3--|
-------------------------|-------------------------------|
-------------------------|-------------------------------|
99x
----------------------|----------------------------||----||
------------5---------|------------------3-6-3-----||----||
-------3----5------3--|---------------0--------0--*||----||
--5----5----5------5--|----5--6--7----------------*||----||
-------5----3------5--|----3--4--5-----------------||----||
-------3-----------3--|----------------------------||----||

© Авторские права на тексты, песни, видео и другую представленную информацию принадлежат правообладателям. Аккорды, табы, gtp и тексты песен взяты из открытых источников.
Возрастная категория сайта: 18+
Тексты некоторых песен могут содержать нецензурные выражения, брань.
© 2020 guitar-chords.ru