#табулатура

    
Barrel Of A Gun

Начинается c Pre-Chorus 2:

Pre-Chorus 2:    What am I supposed to do?
When everything that I’ve done
Is leading me to conclude
I’m not the one
E-|------------------------------------------------------------------------------|
B-|------------------------------------------------------------------------------|
G-|------------------------------------------------------------------------------|
D-|------------------------------------------------------------------------------|
A-|---7---------------------------------------5---------3-----------------------|
E-|---5---------------------------------------3---------1-----------------------|

Chorus:        
         Whatever I’ve done
E-|------------------------------------------------------------------------------|
B-|------------------------------------------------------------------------------|
G-|------------------------------------------------------------------------------|
D-|------------------------------------------------------------------------------|
A-|---2---------------7---------5---------3--------------------------------------|
E-|---0---------------5---------3---------1--------------------------------------|
        I’ve been staring down the Barrel of a Gun
E-|------------------------------------------------------------------------------|
B-|------------------------------------------------------------------------------|
G-|------------------------------------------------------------------------------|
D-|------------------------------------------------------------------------------|
A-|---------------------------------------------------9---------7----------------|
E-|---------------------------------------------------7---------5----------------|
         Whatever I’ve done
E-|------------------------------------------------------------------------------|
B-|------------------------------------------------------------------------------|
G-|------------------------------------------------------------------------------|
D-|------------------------------------------------------------------------------|
A-|---2---------------7---------5---------3--------------------------------------|
E-|---0---------------5---------3---------1--------------------------------------|
        I’ve been staring down the Barrel of a Gun
E-|------------------------------------------------------------------------------|
B-|------------------------------------------------------------------------------|
G-|------------------------------------------------------------------------------|
D-|------------------------------------------------------------------------------|
A-|---------------------------------------------------9---------7----------------|
E-|---------------------------------------------------7---------5----------------|
         Whatever I’ve done
E-|------------------------------------------------------------------------------|
B-|------------------------------------------------------------------------------|
G-|------------------------------------------------------------------------------|
D-|------------------------------------------------------------------------------|
A-|---2---------------7---------5---------3--------------------------------------|
E-|---0---------------5---------3---------1--------------------------------------|
        I’ve been staring down the Barrel of a Gun
E-|------------------------------------------------------------------------------|
B-|------------------------------------------------------------------------------|
G-|------------------------------------------------------------------------------|
D-|------------------------------------------------------------------------------|
A-|---------------------------------------------------9---------7----------------|
E-|---------------------------------------------------7---------5----------------|
          Whatever I’ve done         Whatever           Whatever
E-|------------------------------------------------------------------------------|
B-|------------------------------------------------------------------------------|
G-|------------------------------------------------------------------------------|
D-|------------------------------------------------------------------------------|
A-|---2---------------7---------5---------3--------------------------------------|
E-|---0---------------5---------3---------1--------------------------------------|

© Авторские права на тексты, песни, видео и другую представленную информацию принадлежат правообладателям. Аккорды, табы, gtp и тексты песен взяты из открытых источников.
Возрастная категория сайта: 18+
Тексты некоторых песен могут содержать нецензурные выражения, брань.
© 2020 guitar-chords.ru