When The Body Speaks

Verse:        
        To the soul's desires  the body listens
E-|-7---------7------10------10-------------7------7----------------------10-7--|
B-|--------8--------8-------8--------------8-----8----8----------------8---------|
         What the flesh requires keeps the heart imprisoned
E-|-----------7------10------10-------------7------7----------------------10-7---|
B-|--------8--------8-------8--------------8-----8----8----------------8---------|
         What the spirit seeks the mind will follow
E-|-----------7----------------7--------7------7---87-------7----------------------|
B-|--------8-------810---7-------78-------8----------878-8---------------------|
         When the body speaks all else is hollow
E-|-----------7------10------10-------------7------7--------------------10---7---|
B-|--------8--------8-------8--------------8-----8----8--------------8-----8-----|

Pre-Chorus:             I'm just an angel driving blindly through this world
E-|----------7--7-------5--5--5--5-----3--3--3--3----1--1--1--1----1--7--|
B-|--8--8--8--8--8--8----6--6--6--6--6----4--4--4--4----2--2--2--2----8--|
         I'm just a slave here at the mercy of a girl
E-|--7--7--7-------5--5--5--5-----3--3--3--3----1--1--1--1----1--7--|
B-|---8--8--8--8----6--6--6--6--6----4--4--4--4----2--2--2--2----8--|

Chorus:        
          Oh      I     need     our     tenderness
E-|--------7---7---------------7---7---------------7---7----------------7---7----|
B-|--------8---8---------------8---8---------------8---8----------------8---8----|
G-|--------7---7---------------7---7---------------7---7----------------7---7----|
D-|--------7---7---------------7---7---------------7---7----------------7---7----|
A-|--------7---7---------------7---7---------------7---7----------------7---7----|
E-|--------7---7---------------7---7---------------7---7----------------7---7----|
            Oh    I    need    your    touch
E-|--------7---7---------------7---7---------------7---7----------------7---7----|
B-|--------8---8---------------8---8---------------8---8----------------8---8----|
G-|--------7---7---------------7---7---------------7---7----------------7---7----|
D-|--------7---7---------------7---7---------------7---7----------------7---7----|
A-|--------7---7---------------7---7---------------7---7----------------7---7----|
E-|--------7---7---------------7---7---------------7---7----------------7---7----|
             Oh    I    dream    of   one   caress
E-|--------7---7---------------7---7---------------7---7----------------7---7----|
B-|--------8---8---------------8---8---------------8---8----------------8---8----|
G-|--------7---7---------------7---7---------------7---7----------------7---7----|
D-|--------7---7---------------7---7---------------7---7----------------7---7----|
A-|--------7---7---------------7---7---------------7---7----------------7---7----|
E-|--------7---7---------------7---7---------------7---7----------------7---7----|
             Oh    I     pray      too       much
E-|--------5---5---------------5---5---------------7---5----------------5---5----|
B-|--------6---6---------------6---6-------------------6----------------6---6----|
G-|--------5---5---------------5---5-------------------5----------------5---5----|
D-|--------5---5---------------5---5-------------------5----------------5---5----|
A-|--------5---5---------------5---5-------------------5----------------5---5----|
E-|--------5---5---------------5---5-------------------5----------------5---5-----|

Verse:        
      To the soul's desires the body listens
E-|---7--------7-------10------10------7------7------7------------10--7--------|
B-|----8--------8---------8-------8------8------8------8-----8-------------------|
        What the flesh requires keeps the heart imprisoned
E-|---7--------7-------10------10------7------7------7------------10--7--------|
B-|----8--------8---------8-------8------8------8------8-----8-------------------|
        What the spirit seeks the mind will follow
E-|----7-------7-------5------5------7------7------7--------87--------8---------|
B-|-----8-------8-------7------7------8------8------8-8--------878---7---------|
        When the body speaks all else is hollow
E-|---7--------7-------10------10------7------7------7--------------10-7-------|
B-|----8--------8---------8-------8------8------8------8----------8--------------|

Pre-Chorus:          You keep me waiting for the promise that is mine
E-|----------7--7-------5--5--5--5-----3--3--3--3----1--1--1--1----1--7--|
B-|--8--8--8--8--8--8----6--6--6--6--6----4--4--4--4----2--2--2--2----8--|
    Please stop debating please stop wasting your time
E-|--7--7--7-------5--5--5--5-----3--3--3--3----1--1--1--1----1--7--|
B-|---8--8--8--8----6--6--6--6--6----4--4--4--4----2--2--2--2----8--|

Chorus:        
                    Oh     I     need    our    tenderness
E-|--------7---7---------------7---7---------------7---7----------------7---7----|
B-|--------8---8---------------8---8---------------8---8----------------8---8----|
G-|--------7---7---------------7---7---------------7---7----------------7---7----|
D-|--------7---7---------------7---7---------------7---7----------------7---7----|
A-|--------7---7---------------7---7---------------7---7----------------7---7----|
E-|--------7---7---------------7---7---------------7---7----------------7---7----|
                    Oh     I    need    your    touch
E-|--------7---7---------------7---7---------------7---7----------------7---7----|
B-|--------8---8---------------8---8---------------8---8----------------8---8----|
G-|--------7---7---------------7---7---------------7---7----------------7---7----|
D-|--------7---7---------------7---7---------------7---7----------------7---7----|
A-|--------7---7---------------7---7---------------7---7----------------7---7----|
E-|--------7---7---------------7---7---------------7---7----------------7---7----|
                   Oh    I    dream    of   one   caress
E-|--------7---7---------------7---7---------------7---7----------------7---7----|
B-|--------8---8---------------8---8---------------8---8----------------8---8----|
G-|--------7---7---------------7---7---------------7---7----------------7---7----|
D-|--------7---7---------------7---7---------------7---7----------------7---7----|
A-|--------7---7---------------7---7---------------7---7----------------7---7----|
E-|--------7---7---------------7---7---------------7---7----------------7---7----|
                    Oh    I    pray    too    much
E-|--------5---5---------------5---5---------------7---5----------------5---5----|
B-|--------6---6---------------6---6-------------------6----------------6---6----|
G-|--------5---5---------------5---5-------------------5----------------5---5----|
D-|--------5---5---------------5---5-------------------5----------------5---5----|
A-|--------5---5---------------5---5-------------------5----------------5---5----|
E-|--------5---5---------------5---5-------------------5----------------5---5-----|

Ending:        
E-|-7---------7------10-------10--------7---------7------7---------------10-7--|
B-|--------8--------8--------8------------------8------8------------8-------------|
11 times
E-|-7---------7------10-------10--------7---------7------7--------------10-7---|
B-|--------8--------8--------8------------------8------8------------8----------8-|

© Авторские права на тексты, песни, видео и другую представленную информацию принадлежат правообладателям. Аккорды, табы, gtp и тексты песен взяты из открытых источников.
Возрастная категория сайта: 18+
Тексты некоторых песен могут содержать нецензурные выражения, брань.
© 2020 guitar-chords.ru