Инструмент: Гитара (6-ти струнная) поменять
Строй: Standart (E A D G B E) поменять
Без каподастра поменять

Die Gerechtigkeit

E F# G F# 

"Соло":        E|---------------------------------
B|--------777-------------------
G|--4------------676-----------
D|---------------------------------
A|---------------------------------
E|---------------------------------

E                           F# G F# 
Du glaubst an deine Zukunft,
Sie haengt nicht vor dir ab.
Du wirst wie alle hoeren,
Du bist ein Sklave der Macht.

A                  C            E*             C 
Kennst du das Wort die Gerechtigkeit?  * - на 1 окт. выше, чем в интро.
F           G                  E 
Sag mir wo du wirklich stehst.
A                 C        E*     C 
Du bist nicht frei in dieser Welt,
F                                                           E 
Wie kannst du glauben, dass du jetzt gut lebst?

Eins, zwei, drei, vier!

Die Macht kaempft fuer den Frieden,
Das heisst der Stacheldraht.
Die Bomben und Raketen
Haben keinen Verrat.

Kennst du das Wort die Gerechtigkeit?
Zeig mir, wo du sie siehst.
Wir leben in der Dunkelheit,
Wie kannst du glauben, dass du ein Mensch bist?

A F C G 

A                                                     F 
Du glaubst, dass sie nur die Wahrheit sagen,
C                                  G 
Warum haben sie immer recht?
In solchem Fall will ich dich jetzt nur fragen:
"Nennst du dich, nennst du dich ein Mensch?"

A G F E F G 

Соло:        
E|-------------------------------------------------------------------------------------------------------------------
B|------------------------------------------5----------------------------------------------------------------------
G|-----------5-----------5-----------5----------7-----5-----------------------4------------4------------4-----
D|------7----------7-----------7------------------------------7----------5-----------5----------5--------------
A|------------------------------------------------------------------------------------------------------------------
E|------------------------------------------------------------------------------------------------------------------

--------------------------------------------------------------------------------------------------------------------
--------------------------------------------------------------------------------------------------------------------
----7------5-------4-------------------------2----------------2-------------------2------5------4-------2----
----------------------------5-------3------------------3------------------3--------------------------------------
--------------------------------------------------------------------------------------------------------------------
--------------------------------------------------------------------------------------------------------------------

---------------------------------------
------555555666888------------
---------------------------------------
---------------------------------------
---------------------------------------
---------------------------------------

Перевод:    
Ты веришь в своё будущее,
Оно от тебя не зависит.
Ты будешь слушать как все,
Ты раб власти.

Знаешь ли ты слово справедливость?
Скажи мне, где ты на самом деле находишься.
Ты не свободен в этом мире,
Как ты можешь думать, что ты сейчас хорошо живёшь?

Раз, два, три, четыре!

Власть воюет за мир,
Это называется колючая проволока.
Бомбы и ракеты
Не предают.

Знаешь ли ты слово справедливость?
Покажи мне, где ты её видишь.
Мы живём в тьме,
Как ты можешь думать, что ты человек?

Ты думаешь, что они говорят только правду,
Почему они всегда правы?
В этом случае я сейчас только хочу тебя спросить:
"Называешь ли ты себя человеком?"            

Другие песни этого исполнителя/группы


© Авторские права на тексты, песни, видео и другую представленную информацию принадлежат правообладателям. Аккорды, табы, gtp и тексты песен взяты из открытых источников.
Возрастная категория сайта: 18+
Тексты некоторых песен могут содержать нецензурные выражения, брань.
© 2021 guitar-chords.ru