Money For Nothing

Here we go - here's my version of the intro to Money For Nothing,
Not so scarey after all is it?
|----------------------------------------------------------------------------|
|-----------6----------------------------------------------------------------|
|--7-7-5--7-5-7-5-3-3-0----7-7--3s5---0--3s5 5 5s3 0-------------------|
|--5-5-5--5---5-5-5-5-5----5-5--3s5---0--3s5 5 5s3 0-------------------|
|----------------------------------------------------------------------------|
|----------------------------------------------------------------------------|

|----------------------------------------------------------------------------|
|-------------8--------------------------------------------------------------|
|--7-7-5--5-7-7-7-5----0--7-7-3s5-0----------------------------------------|
|--5-5-5-8---------8-5-0--5-5-3s5-0--3s5-5-------------------------------|
|----------------------------------------------------------------------------|
|----------------------------------------------------------------------------|
An alternate ending used in concert down here in oz, ~ 1987 towards the end of
the song.
  -- play as above until-v
|----------------------------------------------------------------------------|
|----------------------------------------------------------------------------|
|-------------------------3-2------------------------------------------------|
|-----------------------------3s5-5-5p3----------------------------------|
|-------------------------------------------3h5-3h5----------------------|
|-------------------------------------------------------6-5-3----------------|
Have fun kiddies

© Авторские права на тексты, песни, видео и другую представленную информацию принадлежат правообладателям. Аккорды, табы, gtp и тексты песен взяты из открытых источников.
Возрастная категория сайта: 18+
Тексты некоторых песен могут содержать нецензурные выражения, брань.
© 2020 guitar-chords.ru