Обратите внимание! В этом подборе есть аккорд с тоникой Си, который обозначается как H. У нас аккорд B и H равнозначны, В - это "си" и H - это "си".
Если в этом подборе оба этих обозначений, то скорее всего тут B - это Bb (A#). При игре Вы сразу поймете, какой нужно брать аккорд. Хорошей игры на гитаре!
Инструмент: Гитара (6-ти струнная) поменять
Строй: Standart (E A D G B E) поменять
Без каподастра поменять

Вобла

Вступление:    
1|--7--9---7--7----
2|--7--9---7---7---
3|--8--10--8----8--
4|--9--11--9-----9-
5|--9--11--9-------
6|--7--9---7-------

1 Куплет:       H  C#m 
1|--7--9----
2|--7--9----
3|--8--10---
4|--9--11---
5|--9--11---
6|--7--9----

Вобла - была когда-то живой и красивой рыбой
Во, бля - теперь лежит на тарелке у кружки с пивом
И т. д.

1 Проигрыш:    H5 C#5 
    H5 C#5 
4|---------
5|--9--11--
6|--7--9---

2 Куплет:        H  C#m 
1|--7--9----
2|--7--9----
3|--8--10---
4|--9--11---
5|--9--11---
6|--7--9----

Жизнь у воблы непростая - плавать жиром обрастая
И мечтать, что за этот труд ей подарят огромный пруд

Припев:        
    H5 C#5 F#5 
4|------------
5|--9--11--4--  Глупая рыба
6|--7--9---2--

    H5 C#5 F#5 
4|---------11-
5|--9--11--9--  Мертвая рыба
6|--7--9------

    H5 C#5 F#5 
4|------------
5|--9--11--4--  Глупая рыба
6|--7--9---2--

    H5 C#5 H5 
4|----------
5|--9--11--9
6|--7--9---7            

© Авторские права на тексты, песни, видео и другую представленную информацию принадлежат правообладателям. Аккорды, табы, gtp и тексты песен взяты из открытых источников.
Возрастная категория сайта: 18+
Тексты некоторых песен могут содержать нецензурные выражения, брань.
© 2021 guitar-chords.ru