Инструмент: Гитара (6-ти струнная) поменять
Строй: Standart (E A D G B E) поменять
Без каподастра поменять
Вступление:    
e--------------------
b--------------------
g--------------------
d--------------------
a--------------------
e-8888-5555-1111-3333

Тема в начале (в ой-ду-душном варианте):
e--------------------
b--------------------
g---3-----5-----3----
d--------------------
a--------------------
e--------------------

e--------------------
b--------3-3---------
g---5-----------5----
d--------------------
a--------------------
e--------------------

e--------------------
b--------------------
g---3-----5-----3----
d--------------------
a--------------------
e--------------------

  С           A            F          G 
Твои большие сиськи мне мешают ночью спать
Твои большие сиськи расплылись на всю кровать
От них я задыхаюсь
От любви всю ночь кривляюсь
Твои ёбаные сиськи расплылись на всю кровать.

От страха я сознание теряю по ночам
Когда своими сиськами мне долбишь по плечам
Я потом обливаюсь
Синяками покрываюсь
И опять с разбитым носом просыпаюсь по утрам.

Я так давно не видел твое милое лицо
За сиськами огромными скрывается оно
Я так тебя любил
Но облик твой совсем забыл
Твои ёбаные сиськи закрывают все лицо.

Меня своими сиськами душила ты не раз
Засасывая внутрь, как бумагу в унитаз
Однажды я тебя поцеловал потом три дня
Пришлось в реанимации откачивать меня.

Всю ночь сплошные муки не могу так больше жить
Хотел уже я руки на себя я наложить.
Но ножницы садовые достану все равно
Отрежу твои сиськи и выброшу окно.

Твои большие сиськи я выброшу в окно! } Х2            

© Авторские права на тексты, песни, видео и другую представленную информацию принадлежат правообладателям. Аккорды, табы, gtp и тексты песен взяты из открытых источников.
Возрастная категория сайта: 18+
Тексты некоторых песен могут содержать нецензурные выражения, брань.
© 2021 guitar-chords.ru