"La memoire neuve"
Hear no more, Dear no more

La, il va vous falloir votre plus belle voix presleyienne.
Je ne suis pas sur du second refrain et du dernier couplet...

Schema (1):
e:---2-----2-----2-----------
B:---2-----2-----2-----------
G:---------------------------
D:-------2-----------2-2-2-2-
A:-0---0-----0-0---0---------
E:---------------------------

Schema (2):
e:---0-----0-----
B:---0-----0-----
G:---------------
D:-2-----------2-
A:-------2---2---
E:-0---0---------

Schema (2+):
Utilise en place de (2) dans les autres couplets
e:---0-----0-----0-----
B:---0-----0-----0-----
G:---------------------
D:-2-----------2-------
A:-------2---2-------2-
E:-0---0-----------0---

Schema (R) pour Refrain:
e:---0-----0---2-----------|---0-----0---1---1-
B:---0-----0---2-----------|---0-----0---1---1-
G:-------------------------|-------------------
D:-2-----2---------2-2-2-2-|-2-----2---3---3---
A:-----2-----0---0---------|-----2-------------
E:-0-----------------------|-0-----------------

e:---0-----0-----0---------|-5-3-
B:---0-----0-----0---------|-5-3-
G:-----------------------4-|-6-4-
D:-------------2---------5-|-7-5- = eventuellement ces 2 accords
A:-3---------3-----------5-|-7-5-
E:-----0-3---------0-3-3---|-5-3-

Accords utilises dans cette chanson:
    A6 E  F  C6/E C6/G G A  G 
e:--2--0--1--0----0-------5--3-
B:--2--0--1--0----0-------5--3-
G:--2--1--2--0----0----4--6--4-
D:--2--2--3--2----2----5--7--5-
A:--0--2--3--3----3----5--7--5-
E:-----0--1--0----3-------5--3-

Paroles:
intro : 2*(1)
(1)                  (1) 
I feel something for you
(2)                  (1) 
You feel nothing for me
(1)                         (1) 
This word (love) can't be true
(2)                         (1) 
This word (love) is not for me
(R) 
I know some words I could repeat to you
You say O.K. but you don't hear no more
Dear no more
Maybe you run away
Look at your love today
You will keep it for you (Aaaaaaah)
This word (love) isn't true
I know some words I could repeat to you
You f????? them for? and you don't hear no more
Dear no more
I feel lonesome tonight
Maybe because of you
My knees are on the ground
My feet became a clue

© Авторские права на тексты, песни, видео и другую представленную информацию принадлежат правообладателям. Аккорды, табы, gtp и тексты песен взяты из открытых источников.
Возрастная категория сайта: 18+
Тексты некоторых песен могут содержать нецензурные выражения, брань.
© 2020 guitar-chords.ru