I. The Crimson Sunrise

E---|----------------------------------------------------|--------------
B---|----------------------------------------------------|--------------
G---|--4:------------------------------------------------|--------------
D---|--4:--------2--5--------2--4----------2-------------|--------0-----
A---|---------2-----------2-----------2h5--------2--5/7--|-----7--------
E---|----------------------------------------------------|--5-----------
B---|------0-----------0-----------0----------0----------|--------------
                                        (1/2)
E-------------------------------------------|---------------------------
B-------------------------------------------|---------------------------
G-------------------------------------------|---------------------------
D------------0-----------2--0---------------|--------2--5--------2------
A---7-----5-----5-----2--------------0------|-----2-----------2---------
E------3-----------0--------------2---------|---------------------------
B------------------------------3--------3^--|--0-----------0------------

E----------------------------|------------------------------------------
B----------------------------|------------------------------------------
G----------------------------|------------------------------------------
D---4----------2-------------|--------0-----------0-----------2---------
A---------2h5--------2--5/7--|-----7-----7-----5-----5-----2-----2------
E----------------------------|--5-----------3-----------0---------------
B------0----------0----------|------------------------------------------

E---------------|------------------------------------------------|------
B---------------|------------------------------------------------|------
G---------------|------------------------------------------------|------
D---------------|--------2--5--------2--4----------2-------------|------
A---------3-----|-----2-----------2-----------2h5--------2--5/7--|------
E------3-----3--|------------------------------------------------|------
B---1-----------|--0-----------0-----------0----------0----------|------
                                                 (1/2)
E----------------------------------------------------|------------------
B----------------------------------------------------|------------------
G----------------------------------------------------|------------------
D---------0-----------0-----------2--0---------------|--------2--5------
A------7-----7-----5-----5-----2--------------0------|-----2------------
E---5-----------3-----------0--------------2---------|------------------
B---------------------------------------3--------3^--|--0---------------

E-------------------------------------|---------------------------------
B-------------------------------------|---------------------------------
G-------------------------------------|---------------------------------
D---------2--4----------2-------------|--------0-----------0------------
A------2-----------2h5--------2--5/7--|-----7-----7-----5-----5---------
E-------------------------------------|--5-----------3-----------0------
B---0-----------0----------0----------|---------------------------------

E------------------------|--------------0-----------------------0-------
B------------------------|-----------0--------0--------------3----------
G------------------------|--------2-----------------------2-------------
D------2-----------------|-----4-----------------------0----------------
A---2-----3--------3-----|----------------------------------------------
E---------------3-----3--|--2--------------2-----2--3--------------3----
B------------1-----------|----------------------------------------------

E---------|--------------------------------------------------|----------
B---3-----|--------------------2-----------------------------|----------
G---------|--------4-----------------------------------2-----|----------
D---------|-----2-----2-----4-----4--------4--------0-----0--|-----4----
A---------|--0-----------2--------------2-----2--------------|----------
E------3--|--------------------------0-----------3-----------|--2-------
B---------|--------------------------------------------------|----------

E---------0-----------------------0-----------|-------------------------
B------0--------0--------------3--------3-----|--------------------2----
G---2-----------------------2-----------------|--------4----------------
D------------------------0--------------------|-----2-----2-----4-------
A---------------------------------------------|--0-----------2----------
E------------2-----2--3--------------3-----3--|-------------------------
B---------------------------------------------|-------------------------

E--------------------------------|--------------------------------------
B--------------------------------|--------------------------------------
G--------------------------2-----|--7:--------------------0-------------
D---4--------4----------0-----0--|--8:--------------4-------------------
A---------2-----(2)--------------|---------2--5-----------------5/7-----
E------0-------------3-----------|--------------------------------------
B--------------------------------|------0--------0-----0-----0----------

E--------------|-----------------------------------------|--------------
B--------------|-----------------------------------------|--------------
G--------------|--------------------0--------------------|--------------
D---7-----54--|--------------4-----------------------2--|--------------
A--------------|-----2--5--------------------0--5-----2--|-----2--5-----
E--------------|-----------------------------------------|--------------
B------0-------|--0--------0-----0-----0--3--------3-----|--0-----------

E----------------------------------|------------------------------------
B----------------------------------|------------------------------------
G------------0---------------------|--------------------0---------------
D------4----------------7-----54--|--2-----------4---------------------
A------------------5/7-------------|-----2--5--------------------0------
E----------------------------------|------------------------------------
B---0-----0-----0----------0-------|-----------0-----0-----0--3---------

E------------||---------------------------------------------------------
B------------||---------------------------------------------------------
G------------||*--7:----------------------------------------------------
D---------2--||*--4:----------------------------------------------------
A---5-----2--||---------------------------------------------------------
E------------||----------14--15-----12--14-----10--12-----9--10---------
B------------||-------0----------0----------0----------0---------0------

E------|-----------------------------------------------------||--||-----
B------|-----------------------------------------------------||--||-----
G------|----------------------------------------------------*||--||*----
D------|----------------------------------------------------*||--||*----
A------|---------------------------------------------8-------||--||-----
E---7--|-----14--15-----12--14-----10--12-----9--10----------||--||-----
B------|--0----------0----------0----------0------------10---||--||-----

E-----------------------------|----------------------|------------------
B-----------------------------|----------------------|------------------
G---4:------------------------|----------------------|------------------
D---4:------------------------|----------------------|------------------
A-----------------------------|----------------------|------------------
E----------9-10-----7-9-----5-|--7-----4-5-----5-----|-----9-10---------
B-------0--7/8---0--5/7--0--3/|--5--0--2/3--0--3-----|--0--7/8---0------

E-------------|--------------------||--||-------------------------------
B-------------|--------------------||--||-------------------------------
G-------------|--3:---------------*||--||*--7:--------------------------
D-------------|--4:---------------*||--||*--4:--------------------------
A-------------|--------------------||--||-------------------------------
E---7-9-----5-|------7-----4-5-8---||--||-------------------------------
B---5/7--0--3/|------5--0--2/3/6---||--||-------0--7--8--0--5--7--0-----

E------------------------|----------------------------------------------
B------------------------|----------------------------------------------
G------------------------|----------------------------------------------
D------------------------|----------------------------------------------
A------------------------|----------------------------------------------
E------------------------|----------------------------------------------
B---3--5--0--2--3--0--3--|--0--7--8--0--5--7--0--3--5--0--2--3--6-------

E---------||-----------------|--------------------||---------0----------
B---------||-----------------|--------------------||------7-----10------
G--------*||-----------------|--------------------||*-------------------
D--------*||-----------------|--------------------||*--9----------------
A---------||-----------------|--------------------||--------------------
E---------||--2--2-----------|--x--x--2--2--------||--------------------
B---~~~---||--0--0-----------|--x--x--0--0--------||--------------------

E------|--------0---------||------------0--|-----------0--|-------------
B------|-----7------------||---------0-----|--------0-----|--------0----
G---7--|-----------7-----*||-----11--------|-----9--------|-----4-------
D------|--9-----------7--*||--9------------|--7-----------|--2----------
A------|------------------||---------------|--------------|-------------
E------|------------------||---------------|--------------|-------------
B------|------------------||---------------|--------------|-------------

E---0--|-----------5--|-------------------------------------------------
B------|--------8-----|-------------------------------------------------
G------|-----7--------|-------------------------------------------------
D------|--5-----------|-------------------------------------------------
A------|--------------|-----------------------------------------5-------
E------|--------------|-----7--x--x--5--7--x--x--5~~~--7--x--x-----7----
B------|--------------|--0----------------------------------------------

E------|----------------------------------------------|-----------------
B------|----------------------------------------------|-----------------
G------|----------------------------------------------|-----------------
D------|----------------------------------------------|-----------------
A------|-----------------------------------5-----7p5--|-----------------
E---5--|-----7--x--x--5--7--x--x--5~~~--7-----x-------|-----7--x--x-----
B------|--0-------------------------------------------|--0--------------

E-----------------------------------------|-----------------------------
B-----------------------------------------|-----------------------------
G-----------------------------------------|-----------------------------
D-----------------------------------------|-----------------------------
A------------------------------5h7--5-----|-----------------------------
E---5--7--x--x--5~~~--7--x--x----------7--|-----7--x--x--5--7--x--x-----
B-----------------------------------------|--0--------------------------

E------------------------|---------------------------------|------------
B------------------------|---------------------------------|------------
G------------------------|--4:-----------------------------|--9:--------
D------------------------|--4:-----------------------------|--8:--------
A------------------------|---------------------------------|------------
E---5~~~--7--------------|------------2-----4--2--2-----5--|------------
B------------0--3--5--7--|------2--2-----2-----------2-----|------2-----

E---------------------------|---------------------------------|---------
B---------------------------|---------------------------------|---------
G---------------------------|--4:-----------------------------|--9:-----
D---------------------------|--4:-----------------------------|--8:-----
A------------------4--7--5--|---------------------------------|---------
E---4-----4--5--7-----------|------------2-----4--2--2-----5--|---------
B------5--------------------|------2--2-----2-----------2-----|---------

E------------------------------|-----------------------------|----------
B------------------------------|-----------------------------|----------
G------------------------------|-----------------------------|----------
D------6-----------------------|--------4-----6--4--4-----7--|-----6----
A---4-----------------4--7--5--|--4--4-----4-----------4-----|--4-------
E------------4--5--7-----------|-----------------------------|----------
B---------5--------------------|-----------------------------|----------

E------------------------|----------------------------------|-----------
B------------------------|----------------------------------|-----------
G------------------------|--4:------------------------------|--9:-------
D------------------------|--4:--------7-----9--7--7-----10--|--8:-------
A---7-----------4--7--5--|------7--7-----7-----------7------|------7----
E------4--5--7-----------|----------------------------------|-----------
B------------------------|----------------------------------|-----------

E------------------------------|---------------------------------|------
B------------------------------|---------------------------------|------
G------------------------------|--4:-----------------------------|------
D---9--------------------------|--4:--------7-----9--7--7--------|------
A------10------------7--10--8--|------7--7-----7-----------7-----|------
E----------7--8--10------------|------------------------------8--|------
B------------------------------|---------------------------------|------

E----------------------------------|------------------------------------
B----------------------------------|------------------------------------
G---9:-----------------------------|--4:--------------------------------
D---8:-----9-----------------------|--4:--------------------------------
A-------7--------------------------|------------2-----2--0--0-----3-----
E-------0-----------------0--3--1--|------0--0-----0-----------0--------
B-------------8--0--1--3-----------|------------------------------------

E---|---------------------------------|---------------------------------
B---|---------------------------------|---------------------------------
G---|--9:-----------------------------|--4:-----------------------------
D---|--8:-----------------------------|--4:-----------------------------
A---|---------2-----2--3--5-----------|---------------------------------
E---|------0-----3-----------0--3--1--|------------2-----4--2--2--------
B---|---------------------------------|------2--2-----2-----------2-----

E------|-----------------------------|-----------------------------|----
B------|-----------------------------|-----------------------------|----
G------|-----------------------------|-----------------------------|----
D------|-----------------------------|-----------------------------|----
A------|--------------------4--7--5--|-----------------------------|----
E---5--|-----4-----4--5--7-----------|--------2-----4--2--2-----5--|----
B------|--2-----5--------------------|--2--2-----2-----------2-----|----

E----------------------------------|------------------------------------
B----------------------------------|------------------------------------
G---9:-----------------------------|--4:--------------------------------
D---8:-----6-----------------------|--4:--------4-----6--4--4-----7-----
A-------4-----------------4--7--5--|------4--4-----4-----------4--------
E----------------4--5--7-----------|------------------------------------
B-------------5--------------------|------------------------------------

E---|---------------------------------|---------------------------------
B---|---------------------------------|---------------------------------
G---|--9:-----------------------------|--4:-----------------------------
D---|--8:-----6-----------------------|--4:--------7-----9--7--7--------
A---|------4-----7-----------4--7--5--|------7--7-----7-----------7-----
E---|---------------4--5--7-----------|---------------------------------
B---|---------------------------------|---------------------------------

E-------|------------------------------------|--------------------------
B-------|------------------------------------|--------------------------
G-------|--9:--------------------------------|--4:----------------------
D---10--|--8:-----9--------------------------|--4:--------7-----9--7----
A-------|------7-----10------------7--10--8--|------7--7-----7----------
E-------|----------------7--8--10------------|--------------------------
B-------|------------------------------------|--------------------------

E------------|--------------------------------|-------------------------
B------------|--------------------------------|-------------------------
G------------|--9:----------------------------|--4:---------------------
D---7--------|--8:-----9----------------------|--4:---------------------
A------7-----|------7-------------------------|------------0-----2------
E---------8--|------------------------0/3--1--|------0--0-----0---------
B------------|------------8--0--1--3----------|-------------------------

E---------------|---------------------------------|---------------|-----
B---------------|---------------------------------|---------------|-----
G---------------|--9:-----------------------------|--4:-----------|-----
D---------------|--8:-----------------------------|--4:-----------|-----
A---0--0-----3--|---------2-----2--3--5-----------|---------------|-----
E---------0-----|------0-----3-----------0--3--1--|------4-----5--|-----
B---------------|---------------------------------|------2-----3--|-----

E----------------------------|---------------|--------------------------
B----------------------------|---------------|--------------------------
G---9:-----------------------|--4:-----------|--9:----------------------
D---8:-----------------------|--4:--------2--|--8:--4-------------------
A-------------------4--7--5--|------------0--|------2--------------4----
E-------7--4--5--7-----------|------4-----0--|------2-----4--5--7-------
B-------5--------------------|------2--------|--------------------------

E---------|---------------|------------------------------|--------------
B---------|---------------|------------------------------|--------------
G---------|--4:-----------|--5:--------------------------|--4:----------
D---------|--4:-----------|--4:--------------------------|--4:--4--7----
A---7--5--|---------------|------------------4--7--6--5--|--------------
E---------|------4-----5--|------7--4--5--7--------------|--------------
B---------|------2-----3--|------5-----------------------|--------------

E---------------------|---------------8--11--10~~~--|------------|------
B---------------------|--7--10--9~~~----------------|------------|------
G---------5--8--7~~~--|-----------------------------|--2:--------|------
D---6~~~--------------|-----------------------------|--4:--------|------
A---------------------|-----------------------------|------------|------
E---------------------|-----------------------------|------------|------
B---------------------|-----------------------------|------------|------

E--------11--9--8---------------------------------------------|---------
B------------------10--9--7-----------------------------------|---------
G---17:----------------------8--6--5--------------------------|--4:-----
D---16:-------------------------------7-----4-----------------|--4:-----
A----------------------------------------6-----6--4--3--------|---------
E-------------------------------------------------------5--4--|---------
B-------------------------------------------------------------|---------

E---------------------------|-------------------------------------------
B---------------------------|-------------------------------------------
G---------------------------|-------------------------------------------
D---------------------------|-------------------------------------------
A---4-----4--4--4-----4--4--|-------------------------------------------
E---2-----2--2--2-----2--2--|-------------------------------------------
B---------------------------|-------------------------------------------

II. Innocence

E---|--------------------------|--------------------------|-------------
B---|--------------------------|--------------------------|-------------
G---|--4:----------------------|--------------------------|-------------
D---|--4:--------2-------------|--------------------------|--------2----
A---|------4--5--2--/---8-----|--4--5--------5--------5--|--4--5--2----
E---|------2--2--0---/--7-----|--2--2--4--4-----3--3-----|--2--2--0----
B---|--------------------------|--------------------------|-------------

E----------------|--------------------|---------------------------------
B----------------|--------------------|---------------------------------
G----------------|--------------------|---------------------------------
D----------------|--------------------|--9--11--9-----12--11--9---------
A-----/---8-----|--4--5--------5--5--|------------9-------------9------
E----/----7-----|--2--2--4--4-----3--|---------------------------------
B----------------|--------------------|---------------------------------

E-----------------------------|-----------------------------------------
B-----------------------------|-----------------------------------------
G----------9-----------10-----|-----------------------------------------
D-------9-----9-----9---------|--9--11--9-----12--11--9---------12------
A---11-----------8---------9--|------------9-------------9--11----------
E-----------------------------|-----------------------------------------
B-----------------------------|-----------------------------------------

E-----------|-----------------------------------------------------------
B-----------|-----------------------------------------------------------
G-----------|------------------------------------9-----------10---------
D-------12--|--9--11--9-----12--11--9---------9-----9-----9-------------
A---10------|------------9-------------9--11-----------8---------9------
E-----------|-----------------------------------------------------------
B-----------|-----------------------------------------------------------

E---|------------------------------------------------------|------------
B---|------------------------------------------------------|------------
G---|--------------------------------------------------11--|------------
D---|--9--11--9-----12--11--9--------------9--7--9/11------|--9~~~------
A---|------------9-------------9--7h9--10------------------|------------
E---|------------------------------------------------------|------------
B---|------------------------------------------------------|------------

E----------|-------------------------|----------------------------|-----
B----------|-------------------------|----------------------------|-----
G---9--11--|--(11)p9h11p9~~~------9--|----------------------------|-----
D----------|------------------12-----|--12--11--9h11p9~~~------9--|-----
A----------|-------------------------|---------------------12-----|-----
E----------|-------------------------|----------------------------|-----
B----------|-------------------------|----------------------------|-----
                                                 (1)
E---------------------|------------------------------|------------------
B---------------------|---------------------17--17^--|---~~~-----17-----
G---------------------|-------------16---------------|------------------
D---------------------|--9h(11)/14------14-----------|------------------
A---12p10--(12)9~~~--|------------------------------|------------------
E---------------------|------------------------------|------------------
B---------------------|------------------------------|------------------
  (*1)(r)                                                      (1/2)
E-----------------|------------------------------------|----------------
B---^--17p15--17--|--15--14h15p14----------------------|----------------
G-----------------|----------------16~~~------11--12--|--(12)p11^------
D-----------------|------------------------------------|----------------
A-----------------|------------------------------------|----------------
E-----------------|------------------------------------|----------------
B-----------------|------------------------------------|----------------
     (r)
E--------------|------------------0-----|---------------------0---------
B--------------|---------------0-----0--|---------------3--------3------
G---(11)p9-----|--3:--------2-----------|--9:--------2------------------
D-----------10|--4:-----4--------------|--8:-----0---------------------
A--------------|------------------------|-------------------------------
E--------------|------2-----------------|------3-----------3------------
B--------------|------------------------|-------------------------------

E---------|------------------------|------------------------------------
B---------|---------------------2--|------------------------------------
G---2-----|--3:-----4--------------|--9:-----------------------2--------
D---------|--4:--2-----2-----4-----|--8:--4--------4--------0-----0-----
A------0--|---------------2--------|------------2-----2-----------------
E---------|------------------------|---------0-----------3--------------
B---------|------------------------|------------------------------------

E---|------------------0-----|---------------------0-----------|--------
B---|---------------0--------|---------------3--------3--------|--------
G---|--3:--------2-----------|--9:--------2--------------2-----|--3:----
D---|--4:-----4--------------|--8:-----0-----------------------|--4:----
A---|------------------------|------------------------------0--|--------
E---|------2--------------2--|------3-----------3--------------|--------
B---|------------------------|---------------------------------|--------

E---------------------|---------------------------------|---------------
B------------------2--|---------------------------------|---------------
G------4--------------|--9:-----------------------2-----|--3:-----------
D---2-----2-----4-----|--8:--4--------4--------0-----0--|--4:-----------
A------------2--------|------------2-----2--------------|---------4-----
E---------------------|---------0-----------3-----------|------2--------
B---------------------|---------------------------------|---------------

E---------0-----|------------------3--|------------------0-----|--------
B------0-----0--|---------------3-----|---------------------0--|--------
G---3-----------|--9:--------2--------|--3:-----2-----4--------|--9:----
D---------------|--8:-----0-----------|--4:--------2-----------|--8:----
A---------------|---------------------|------0-----------------|--------
E---------------|------3--------------|------------------------|--------
B---------------|---------------------|------------------------|--------

E---------------2--|------------------0-----|------------------5--|-----
B------------2-----|---------------0-----0--|---------------3-----|-----
G---------4--------|--3:--------3-----------|--9:--------2--------|-----
D------4-----------|--4:-----4--------------|--8:-----0-----------|-----
A---2--------------|------------------------|---------------------|-----
E------------------|------2-----------------|------3--------------|-----
B------------------|------------------------|---------------------|-----

E--------------------7------|---------------------------|---------------
B----------------10-----10--|---------------------------|---------------
G---3:--------9-------------|--4:-----------------------|--------2------
D---4:-----7----------------|--4:--9--------------------|--------2------
A-------0-------------------|------7--------------------|--2-----0------
E---------------------------|------0-----1--0--------5--|--2------------
B---------------------------|------------------3--0--3--|--0------------

E------|--------|-----------|---------------|------------------|--------
B------|--------|-----------|---------------|------------------|--------
G---4--|--------|--2--------|--9:-----------|--4:--------2--4--|--------
D---4--|--------|--2-----5--|--8:--2--------|--4:--------2--4--|--------
A---2--|--------|--0-----5--|------2--5--3--|------2-----0--2--|--------
E------|--------|--------3--|------0--5--3--|------2-----------|--------
B------|--------|-----------|---------3--1--|------0-----------|--------

E------|--------|---------------|-----------------|---------------------
B------|--------|---------------|-----------------|---------------------
G------|--2-----|--9:-----------|--4:-------------|---------------------
D------|--2--5--|--8:--2-----2--|--4:--------2----|---------------------
A------|--0--5--|------2--5--2--|------4--5--2--8|--4--5---------------
E------|-----3--|------0--5--0--|------2--2--0----|--2--2--(4)--4-------
B------|--------|---------3-----|-----------------|---------------------

E------------------|-------------|-----------------------|--------------
B------------------|-------------|-----------------------|--------------
G------------------|-------------|-----------------------|--3:----------
D------------------|--------2----|-----------------------|--4:-----4----
A------------------|--4--5--2--8|--4--5--------5-----5--|--------------
E---4--3--3-----3--|--2--2--0----|--2--2--4--4--------3--|------2-------
B------------------|-------------|-----------------------|--------------

E---------0--|---------|---------------0--|---------|-------------------
B------0-----|---------|---------------0--|---------|-------------------
G---2--------|--9:-----|--3:-----------4--|--9:-----|--3:--------6------
D------------|--8:-----|--4:--------4-----|--8:-----|--4:-----7---------
A------------|---------|---------2--------|---------|------7------------
E------------|---------|------0-----------|---------|-------------------
B------------|---------|------------------|---------|-------------------

E---0--|---------|---------------0--|---------|-----------------9-------
B---0--|---------|---------------0--|---------|--------------------9----
G------|--9:-----|--3:--------8-----|--9:-----|--4:---------11----------
D------|--8:-----|--4:-----9--------|--8:-----|--4:-----11--------------
A------|---------|------9-----------|---------|------9------------------
E------|---------|------------------|---------|-------------------------
B------|---------|------------------|---------|-------------------------

E-------|----------|---------------7--------|---------|-----------------
B-------|----------|------------------7-----|---------|------------2----
G---11--|--7:------|--4:--------9--------9--|--7:-----|--4:-----2-------
D-------|--8:--11--|--4:-----9--------------|--8:-----|--4:--2----------
A-------|----------|------7-----------------|---------|-----------------
E-------|----------|------------------------|---------|-----------------
B-------|----------|------------------------|---------|-----------------

E---0--------|---------|---------------0--------|------0--------0-------
B------0--2--|---------|------------4-----4-----|------------4----------
G------------|--7:--2--|--4:-----4-----------4--|--7:-----4--------4----
D------------|--8:-----|--4:--4-----------------|--8:-------------------
A------------|---------|------------------------|-----------------------
E------------|---------|------------------------|-----------------------
B------------|---------|------------------------|-----------------------

E------|------------------------------|---------------------------------
B---4--|------------------------------|---------------------------------
G------|--3:--------------------------|--9:-----------------------------
D------|--4:-----------4-----------2--|--8:-----------4-----------2-----
A------|------4--------2-----------0--|------4--------2-----------0-----
E------|------2--2--2-----2--2--2-----|------2--2--2-----2--2--2--------
B------|------------------------------|---------------------------------

E------------|------------------------------|---------------------------
B------------|------------------------------|---------------------------
G------------|--3:--------------------------|--9:-----------------------
D------------|--4:-----------4-----------2--|--8:-----------4-----------
A---2-----5--|------4--------2-----------0--|------4--------2-----------
E---0--2--3--|------2--2--2-----2--2--2-----|------2--2--2-----2--2-----
B------------|------------------------------|---------------------------

E------------------|---------------------------|------------------------
B------------------|---------------------------|------------------------
G------------------|--3:-----------4--------2--|--9:-----------4--------
D------2-----------|--4:-----4--4-----4--------|--8:-----4--4-----4-----
A------0--2--------|---------------------4-----|------4-----------------
E---2-----0--2--2--|------2--------------2-----|------2-----------------
B------------------|---------------------------|------------------------

E------------------|---------------------------|------------------------
B------------------|---------------------------|------------------5-----
G------2-----------|--3:-----------4--------2--|--9:-----------4--------
D------------------|--4:--------------4--------|--8:--2-----------------
A---4-----2--4--5--|------4--------------4-----|------------------------
E---2--------2--3--|------2--2--2--------2-----|------------------------
B------------------|---------------------------|------------------------

E---------------------------------------|------------------0-----|------
B---2-----------------------------------|---------------0-----0--|------
G------2-----4--2-----------------------|--3:--------3-----------|------
D---------4--------2-----4--2-----------|--4:--------------------|------
A---------------------4--------2--------|---------4--------------|------
E---------------------------------5--4--|------2-----------------|------
B---------------------------------------|------------------------|------

E-------------------3--|------------------0-----|------------------2----
B----------------3-----|---------------------0--|---------------2-------
G---9:--------2--------|--3:-----2-----4--------|--9:--------4----------
D---8:-----0-----------|--4:--------2-----------|--8:-----4-------------
A----------------------|------0-----------------|------2----------------
E-------3--------------|------------------------|-----------------------
B----------------------|------------------------|-----------------------

E---|------------------0-----|------------------5--|--------------------
B---|---------------0-----0--|---------------3-----|--------------------
G---|--3:--------3-----------|--9:--------2--------|--3:--------9-------
D---|--4:-----4--------------|--8:-----0-----------|--4:-----7----------
A---|------------------------|---------------------|------0-------------
E---|------2-----------------|------3--------------|--------------------
B---|------------------------|---------------------|--------------------

E-------7------|---------------------------|--------------|--------|----
B---10-----10--|---------------------------|--------------|--------|----
G--------------|--4:-----------------------|--------2--4--|--------|----
D--------------|--4:--9--------------------|--------2--4--|--------|----
A--------------|------7--------------------|--2-----0--2--|--------|----
E--------------|------0-----1--0--------5--|--2-----------|--------|----
B--------------|------------------3--0--3--|--0-----------|--------|----

E------------|---------------|------------------|--------|--------|-----
B------------|---------------|------------------|--------|--------|-----
G---2--------|--9:-----------|--4:--------2--4--|--------|--2-----|-----
D---2-----5--|--8:--2--------|--4:--------2--4--|--------|--2--5--|-----
A---0-----5--|------2--5--3--|------2-----0--2--|--------|--0--5--|-----
E---------3--|------0--5--3--|------2-----------|--------|-----3--|-----
B------------|---------3--1--|------0-----------|--------|--------|-----

E----------------|---------|-----|--------------------------------------
B----------------|------5--|--5--|--------------------------------------
G---9:-----------|--4:--4--|--4--|--------------------------------------
D---8:--2-----7--|--4:--2--|--2--|--------------------------------------
A-------2--5--7--|------2--|--2--|--------------------------------------
E-------0--5--5--|------0--|--0--|--------------------------------------
B----------3-----|---------|-----|--------------------------------------

III. Carpe Diem

E---|--------------------0-----------|--------------0-----------|-------
B---|-----------------------0--------|-----------------0--------|-------
G---|--4:-------------5--------5-----|-----------5--------5-----|-------
D---|--4:----------9--------------9--|--------9--------------9--|-------
A---|---------(7)--------------------|-----7--------------------|-------
E---|------0-------------------------|--0-----------------------|--0----
B---|--------------------------------|--------------------------|-------

E-------------0------------|---------------0------------|---------------
B----------------0---------|------------------0---------|---------------
G----------7--------7------|------------7--------7------|--------4------
D------10--------------10--|--------10--------------10--|-----2---------
A---9----------------------|-----8----------------------|---------------
E--------------------------|--0-------------------------|--0------------
B--------------------------|----------------------------|---------------

E------3-----------|--------------2-----------|--------------7----------
B---1-----1--------|-----------1-----1--------|-----------5-----5-------
G------------4-----|--------4-----------4-----|--------0-----------0----
D---------------2--|-----2-----------------2--|-----4-------------------
A------------------|--------------------------|--5----------------------
E------------------|--0-----------------------|-------------------------
B------------------|--------------------------|-------------------------

E------|--------------5--||----------------0--------|-----------0-------
B------|-----------3-----||-------------------0-----|--------------0----
G------|--------0--------||*--3:--------5--------5--|--------5----------
D---4--|-----4-----------||*--4:-----7--------------|-----7-------------
A------|--3--------------||-------0-----------------|--8----------------
E------|-----------------||-------------------------|-------------------
B------|-----------------||-------------------------|-------------------
                                                  2x
E------|-----------0--------|-----------0---------||-----------0--------
B------|--------------0-----|--------------0------||--------------0-----
G---5--|--------5--------5--|--------7--------7--*||--------5-----------
D------|-----7--------------|-----6--------------*||-----7--------------
A------|--6-----------------|--7------------------||--0-----------------
E------|--------------------|---------------------||--------------------
B------|--------------------|---------------------||--------------------

E------|--------------------|--------------------|-----------0----------
B------|-----------0--------|-----------0--------|--------------0-------
G---5--|--------5-----------|--------5-----5-----|--------4-------------
D------|-----7-----------7--|-----7-----------7--|-----2-----------2----
A------|--8-----------7-----|--6-----------------|----------------------
E------|--------------------|--------------------|--4-------------------
B------|--------------------|--------------------|----------------------

E---|-----------0--------|-----------0--------|-------------0-----------
B---|--------6-----6-----|--------6-----6-----|---------11-----11-------
G---|-----7-----------7--|-----5-----------5--|-----10------------------
D---|--0-----------------|--0-----------------|--0----------------------
A---|--------------------|--------------------|-------------------------
E---|--------------------|--------------------|-------------------------
B---|--------------------|--------------------|-------------------------

E-------|---------------------|-----------0--------|-----------0--------
B-------|--10-----8-----6-----|--------6-----6-----|--------6-----6-----
G---10--|------7-----7-----7--|-----3-----------3--|-----2--------------
D-------|---------------------|--0-----------------|--0-----------------
A-------|---------------------|--------------------|--------------------
E-------|---------------------|--------------------|--------------------
B-------|---------------------|--------------------|--------------------

E------|-----------0--------|--------------------|-----------5----------
B------|--------3-----3-----|--2-----3-----5-----|--------6-----6-------
G---2--|-----1-----------1--|-----2-----2-----2--|-----7-----------7----
D------|--0-----------------|--------------------|--0-------------------
A------|--------------------|--------------------|----------------------
E------|--------------------|--------------------|----------------------
B------|--------------------|--------------------|----------------------

E---|-----------8--------|-------------13----------|--12--------10------
B---|--------6-----6-----|---------11------11------|------8-------------
G---|-----5-----------5--|-----10--------------10--|---------9----------
D---|--0-----------------|--0----------------------|--------------------
A---|--------------------|-------------------------|--------------------
E---|--------------------|-------------------------|--------------------
B---|--------------------|-------------------------|--------------------

E---------|-----------0--------|-----------0--------|-----------0-------
B---6-----|--------6-----6-----|--------6-----6-----|--------------6----
G------7--|-----3-----------3--|-----2-----------2--|--------5----------
D---------|--0-----------------|--0-----------------|-----5-------------
A---------|--------------------|--------------------|--3----------------
E---------|--------------------|--------------------|-------------------
B---------|--------------------|--------------------|-------------------

E------|-----------0--------|--------------------|--1-------------------
B------|--------------6-----|-----------1--------|-----1-----1----------
G---5--|--------5--------5--|--------3-----3-----|--------3-----3-------
D------|-----5--------------|-----3-----------3--|-----------------3----
A------|--0-----------------|--1-----------------|----------------------
E------|--------------------|--------------------|----------------------
B------|--------------------|--------------------|----------------------

E---|-----------0--------|-----------0--------|--------------------|----
B---|--------------6-----|--------------6-----|-----------4--------|----
G---|--------5--------5--|--------5--------5--|--------3-----3-----|----
D---|-----5--------------|-----5--------------|-----3-----------3--|----
A---|--3-----------------|--0-----------------|--1-----------------|----
E---|--------------------|--------------------|--------------------|----
B---|--------------------|--------------------|--------------------|----

E------|--------------------|---------------------|---------------------
B---3--|-----------0--------|---------------------|---------------------
G------|--------------3-----|--5:-----------------|--3:-----------3-----
D------|--------4--------4--|--8:--------4--------|--4:--------4--------
A------|-----4--------------|---------4--------4--|---------4-----------
E------|--2-----------------|------0--------3-----|------2--------------
B------|--------------------|---------------------|---------------------

E---0--------|---------------------|---------------------------|--------
B------0-----|---------------------|------------------0--------|--------
G---------3--|--5:-----------------|--3:-----------3-----3-----|--5:----
D------------|--8:--------4--------|--4:--------4-----------4--|--8:----
A------------|---------4--------4--|---------4-----------------|--------
E------------|------0--------3-----|------2--------------------|--------
B------------|---------------------|---------------------------|--------

E------------------|------------------------|---------------------|-----
B------------------|---------------1--------|---------------3-----|-----
G---------------2--|--3:--------------0-----|--5:--------------0--|-----
D---------4--0-----|--4:--------2--------2--|--8:--------4--------|-----
A------4-----------|---------3--------------|---------5-----------|-----
E---0--------------|------3-----------------|------5--------------|-----
B------------------|------------------------|---------------------|-----

E-------------------------|---------------------|-----------------0-----
B----------------5--------|---------------7-----|-----------------------
G---3:--------5-----5-----|--5:--------7-----7--|--3:----------9--------
D---4:-----5-----------5--|--8:-----7-----------|--4:------10-----------
A-------7-----------------|------9--------------|------10---------------
E-------------------------|---------------------|-----------------------
B-------------------------|---------------------|-----------------------

E---------|--------------0----------|-------------0--------|------------
B---8-----|-----------------10------|----------------8-----|------------
G------9--|----------11---------11--|-------------------0--|------------
D---------|------12-----------------|----------9-----------|------------
A---------|--12---------------------|------10--------------|------10----
E---------|-------------------------|--10------------------|--10--------
B---------|-------------------------|----------------------|------------

E------0--------|-----------0--------|-----------0--------|-------------
B---------8-----|--------------7-----|--------------7-----|-------------
G------------0--|-----------------0--|-----------------0--|-------------
D---9-----------|--------8-----------|--------8-----------|--------7----
A---------------|-----9--------------|-----9--------------|-----8-------
E---------------|--9-----------------|--9-----------------|--8----------
B---------------|--------------------|--------------------|-------------

E---0--------|-----------0--------|-----------------0--|--7/12----------
B------6-----|--------------6-----|--------------0-----|----------------
G---------0--|-----------------0--|-----------0--------|----------------
D------------|--------7-----------|--------4-----------|----------------
A------------|-----8--------------|-----2--------------|----------------
E------------|--8-----------------|--0-----------------|----------------
B------------|--------------------|--------------------|----------------

E---12--12--12--|------0------0---0---0---0---0---0---0---0------0------
B---------------|------10-----10--10--10--10--10--10--10--10-----10-----
G---------------|--5:--0------0---0---0---0---0---0---0---0------0------
D---------------|--4:--7------7---7---7---7---7---7---7---7------7------
A---------------|------0------0---0---0---0---0---0---0---0------0------
E---------------|-------------------------------------------------------
B---------------|-------------------------------------------------------

E------0---0---0---0---0---0---0---0---|--0------0---0---0---0---0------
B------10--10--10--10--10--10--10--10--|--12-----12--12--12--12--12-----
G------0---0---0---0---0---0---0---0---|--0------0---0---0---0---0------
D------7---7---7---7---7---7---7---7---|--9------9---9---9---9---9------
A------0---0---0---0---0---0---0---0---|--0------0---0---0---0---0------
E--------------------------------------|--------------------------------
B--------------------------------------|--------------------------------

E---0---0---0------0------0---0---0---0---0---0------0----|--0-----0----
B---12--12--12-----12-----12--12--12--12--12--12-----12--|--7-----7----
G---0---0---0------0------0---0---0---0---0---0------0----|--0-----0----
D---9---9---9------9------9---9---9---9---9---9------9---|--4-----4----
A---0---0---0------0------0---0---0---0---0---0------0----|--0-----0----
E---------------------------------------------------------|-------------
B---------------------------------------------------------|-------------

E---0--0--0--0--0--0--0-----0-----0--0--0--0--0--0--0--0--|--0-----0----
B---7--7--7--7--7--7--7-----7-----7--7--7--7--7--7--7--7--|--8-----8----
G---0--0--0--0--0--0--0-----0-----0--0--0--0--0--0--0--0--|--0-----0----
D---4--4--4--4--4--4--4-----4-----4--4--4--4--4--4--4--4--|--5-----5----
A---0--0--0--0--0--0--0-----0-----0--0--0--0--0--0--0--0--|--0-----0----
E---------------------------------------------------------|-------------
B---------------------------------------------------------|-------------

E---0--0--0--0--0--0--0-----0-----0--0--0--0--0--0-----0---|--0---------
B---8--8--8--8--8--8--8-----8-----8--8--8--8--8--8-----8--|--5---------
G---0--0--0--0--0--0--0-----0-----0--0--0--0--0--0-----0---|--0---------
D---5--5--5--5--5--5--5-----5-----5--5--5--5--5--5--------|--2---------
A---0--0--0--0--0--0--0-----0-----0--0--0--0--0--0-----0---|--0---------
E----------------------------------------------------------|------------
B----------------------------------------------------------|------------

E---0--0--0--0--0--0--0--0-----0-----0--0--0--0--0--0--0--0--|--0-------
B---5--5--5--5--5--5--5--5-----5-----5--5--5--5--5--5--5--5--|--/-------
G---0--0--0--0--0--0--0--0-----0-----0--0--0--0--0--0--0--0--|--0-------
D---2--2--2--2--2--2--2--2-----2-----2--2--2--2--2--2--2--2--|--2/------
A---0--0--0--0--0--0--0--0-----0-----0--0--0--0--0--0--0--0--|--0-------
E------------------------------------------------------------|----------
B------------------------------------------------------------|----------

E---0--0--0--0--0--0--0--0--0-----0-----0--0--0--0--0--0--------|--3----
B---6--6--6--6--6--6--6--6--6-----6-----6--6--6--6--6--6--x--x--|--3----
G---0--0--0--0--0--0--0--0--0-----0-----0--0--0--0--0--0--x--x--|--2----
D---3--3--3--3--3--3--3--3--3-----3-----3--3--3--3--3--3--x--x--|--x----
A---0--0--0--0--0--0--0--0--0-----0-----0--0--0--0--0--0--x--x--|--0----
E---------------------------------------------------------------|-------
B---------------------------------------------------------------|-------

E------3--3--3--3--3--3--3--3-----3-----3--3--3--3--3--3--------|--5----
B------3--3--3--3--3--3--3--3-----3-----3--3--3--3--3--3--x--x--|--3----
G------2--2--2--2--2--2--2--2-----2-----2--2--2--2--2--2--x--x--|--5----
D------x--x--x--x--x--x--x--x-----x-----x--x--x--x--x--x--x--x--|--3----
A------0--0--0--0--0--0--0--0-----0-----0--0--0--0--0--0--x--x--|--0----
E---------------------------------------------------------------|-------
B---------------------------------------------------------------|-------

E------5--5--5--5--5--5--5--5-----5-----5--5--5--5--5--5--------|-------
B------3--3--3--3--3--3--3--3-----3-----3--3--3--3--3--3--x--x--|-------
G------5--5--5--5--5--5--5--5-----5-----5--5--5--5--5--5--x--x--|-------
D------3--3--3--3--3--3--3--3-----3-----3--3--3--3--3--3--x--x--|-------
A------0--0--0--0--0--0--0--0-----0-----0--0--0--0--0--0--x--x--|-------
E---------------------------------------------------------------|-------
B---------------------------------------------------------------|-------

E---0------0---0---0---0---0---0---0---0------0------0---0---0---0------
B---10-----10--10--10--10--10--10--10--10-----10-----10--10--10--10-----
G---0------0---0---0---0---0---0---0---0------0------0---0---0---0------
D---7------7---7---7---7---7---7---7---7------7------7---7---7---7------
A---0------0---0---0---0---0---0---0---0------0------0---0---0---0------
E-----------------------------------------------------------------------
B-----------------------------------------------------------------------

E---0---0---0---0---|--0------0---0---0---0---0---0---0---0------0------
B---10--10--10--10--|--12-----12--12--12--12--12--12--12--12-----12-----
G---0---0---0---0---|--0------0---0---0---0---0---0---0---0------0------
D---7---7---7---7---|--9------9---9---9---9---9---9---9---9------9------
A---0---0---0---0---|--0------0---0---0---0---0---0---0---0------0------
E-------------------|---------------------------------------------------
B-------------------|---------------------------------------------------

E------0---0---0---0---0---0---------|--0-----0--0--0--0--0--0--0--0----
B------12--12--12--12--12--12--x--x--|--7-----7--7--7--7--7--7--7--7----
G------0---0---0---0---0---0---x--x--|--0-----0--0--0--0--0--0--0--0----
D------9---9---9---9---9---9---x--x--|--4-----4--4--4--4--4--4--4--4----
A------0---0---0---0---0---0---x--x--|--0-----0--0--0--0--0--0--0--0----
E------------------------------------|----------------------------------
B------------------------------------|----------------------------------

E------0-----0--0--0--0--0--0--0--0--|--0-----0--0--0--0--0--0--0--0----
B------7-----7--7--7--7--7--7--7--7--|--8-----8--8--8--8--8--8--8--8----
G------0-----0--0--0--0--0--0--0--0--|--0-----0--0--0--0--0--0--0--0----
D------4-----4--4--4--4--4--4--4--4--|--5-----5--5--5--5--5--5--5--5----
A------0-----0--0--0--0--0--0--0--0--|--0-----0--0--0--0--0--0--0--0----
E------------------------------------|----------------------------------
B------------------------------------|----------------------------------

E------0-----0--0--0--0--0--0--0--0--|--0-----0--0--0--0--0--0--0--0----
B------8-----8--8--8--8--8--8--8--8--|--5-----5--5--5--5--5--5--5--5----
G------0-----0--0--0--0--0--0--0--0--|--0-----0--0--0--0--0--0--0--0----
D------5-----5--5--5--5--5--5--5--5--|--2-----2--2--2--2--2--2--2--2----
A------0-----0--0--0--0--0--0--0--0--|--0-----0--0--0--0--0--0--0--0----
E------------------------------------|----------------------------------
B------------------------------------|----------------------------------

E------0-----0--0--0--0--0--0--0--0--|--0-----0--0--0--0--0--0--0--0----
B------5-----5--5--5--5--5--5--5--5--|--6-----6--6--6--6--6--6--6--6----
G------0-----0--0--0--0--0--0--0--0--|--0-----0--0--0--0--0--0--0--0----
D------2-----2--2--2--2--2--2--2--2--|--3-----3--3--3--3--3--3--3--3----
A------0-----0--0--0--0--0--0--0--0--|--0-----0--0--0--0--0--0--0--0----
E------------------------------------|----------------------------------
B------------------------------------|----------------------------------

E------0-----0--0--0--0--0--0--0-----|--3-----3--3-----3-----3--3--3----
B------6-----6--6--6--6--6--6--6--x--|--3-----3--3-----3-----3--3--3----
G------0-----0--0--0--0--0--0--0--x--|--2-----2--2-----2-----2--2--2----
D------3-----3--3--3--3--3--3--3--x--|--x-----x--x-----x-----x--x--x----
A------0-----0--0--0--0--0--0--0--x--|--0-----0--0-----0-----0--0--0----
E------------------------------------|----------------------------------
B------------------------------------|----------------------------------

E---3-----3-----3--3--3--3--3--3--------|--5-----5--5--5--5--5--5--5----
B---3-----3-----3--3--3--3--3--3--x--x--|--3-----3--3--3--3--3--3--3----
G---2-----2-----2--2--2--2--2--2--x--x--|--5-----5--5--5--5--5--5--5----
D---x-----x-----x--x--x--x--x--x--x--x--|--3-----3--3--3--3--3--3--3----
A---0-----0-----0--0--0--0--0--0--x--x--|--0-----0--0--0--0--0--0--0----
E---------------------------------------|-------------------------------
B---------------------------------------|-------------------------------

E---5-----5-----5--5--5--5--5--5--5--5--||------------------------------
B---3-----3-----3--3--3--3--3--3--3--3--||------------------------------
G---5-----5-----5--5--5--5--5--5--5--5--||*-----------------------------
D---3-----3-----3--3--3--3--3--3--3--3--||*-----------------------------
A---0-----0-----0--0--0--0--0--0--0--0--||---0--0--0--0--0--0--0--0-----
E---------------------------------------||------------------------------
B---------------------------------------||------------------------------
                          3x
E-------------------------||--------------------------------------------
B-------------------------||--------------------------------------------
G------------------------*||--------------9--9--9--9-----9-----9--9-----
D------------------------*||--------------7--7--7--7-----7-----7--7-----
A------0-----0--0--0--0---||--0--0--0--0--0--0--0--0-----0-----0--0-----
E-------------------------||--------------------------------------------
B-------------------------||--------------------------------------------

E-----------||----------------------------------------------------------
B---10--10--||---10--10--10--10--10--10--10--10-----10-----10--10-------
G---9---9---||*--9---9---9---9---9---9---9---9------9------9---9--------
D---7---7---||*--7---7---7---7---7---7---7---7------7------7---7--------
A---0---0---||---0---0---0---0---0---0---0---0------0------0---0--------
E-----------||----------------------------------------------------------
B-----------||----------------------------------------------------------

E------------||----------------------------------------|----------------
B---10--10---||--10--10--10--10--10--10--10--10--------|----------------
G---9---9---*||--10--10--10--10--10--10--10--10--------|----------------
D---7---7---*||--10--10--10--10--10--10--10--10--------|--7--x--x--7----
A---0---0----||--8---8---8---8---8---8---8---8---------|----------------
E------------||----------------------------------------|----------------
B------------||----------------------------------------|----------------

E-------------------------------------------------|---------------------
B-------------------------------------------------|---------------------
G-------------------------------------------------|---------------------
D---x--x--7--x--x--7--x--7--5h7--7--7--5h7--7--7--|--7--x--x--7--x------
A-------------------------------------------------|---------------------
E-------------------------------------------------|---------------------
B-------------------------------------------------|---------------------

E------------------------------------------------|----------------------
B------------------------------------------------|----------------------
G------------------------------------------------|----------------------
D---x--7--x--x--7--7--7--5--5--------------5--5--|--7--x--x--7--x--x----
A------------------------------5--5--7--7--------|----------------------
E------------------------------------------------|----------------------
B------------------------------------------------|----------------------

E-------------------------------------------|---------------------------
B-------------------------------------------|---------------------------
G-------------------------------------------|---------------------------
D---7--x--x--7--x--7--5h7--7--7--5h7--7--7--|--7--x--x--7--x--x--7------
A-------------------------------------------|---------------------------
E-------------------------------------------|---------------------------
B-------------------------------------------|---------------------------

E------------------------------------------|----------------------------
B------------------------------------------|----------------------------
G------------------5--5--------7--7--------|----------------------------
D---x--x--7--x--7--------7--7--------5--5--|--7--x--x--7--x--x--7--x----
A------------------------------------------|----------------------------
E------------------------------------------|----------------------------
B------------------------------------------|----------------------------

E-------------------------------------|---------------------------------
B-------------------------------------|---------------------------------
G-------------------------------------|---------------------------------
D---x--7--x--x--5h7--7--7--5h7--7--7--|--7--x--x--7--x--x--7--x--x------
A-------------------------------------|---------------------------------
E-------------------------------------|---------------------------------
B-------------------------------------|---------------------------------

E------------------------------------|----------------------------------
B------------------------------------|----------------------------------
G------------------------------------|----------------------------------
D---7--7--7--5--5--------------5--5--|--7--x--x--7--x--x--7--x--x--7----
A------------------5--5--7--7--------|----------------------------------
E------------------------------------|----------------------------------
B------------------------------------|----------------------------------

E-------------------------------|---------------------------------------
B-------------------------------|--12--12--12--12--12--12--12--12-------
G-------------------------------|--10--10--10--10--10--10--10--10-------
D---7--7--5h7--7--7--5h7--x--x--|--10--10--10--10--10--10--10--10-------
A-------------------------------|--8---8---8---8---8---8---8---8--------
E-------------------------------|---------------------------------------
B-------------------------------|---------------------------------------

E---------------------|-------------------------------------------------
B---12-----12-----12--|-------------------------------------------------
G---10-----10-----10--|-------------------------------------------------
D---10-----10-----10--|-------------------------------------------------
A---8------8------8---|-------------------------------------------------
E---------------------|-------------------------------------------------
B---------------------|-------------------------------------------------

IV.  The Darkest of Winters

                                                          3x
E---||----------------------------------------------------||------------
B---||----------------------------------------------------||------------
G---||*--5:----------------------------------------------*||------------
D---||*--4:----------------------------------------------*||------------
A---||---------------4--3--------4--5---------------------||--4---------
E---||-------2p0--2--------2----------

© Авторские права на тексты, песни, видео и другую представленную информацию принадлежат правообладателям. Аккорды, табы, gtp и тексты песен взяты из открытых источников.
Возрастная категория сайта: 18+
Тексты некоторых песен могут содержать нецензурные выражения, брань.
© 2020 guitar-chords.ru