#табулатура

    
As I Am

В данной песне используется 6-струнная гитара
Tuning from low to high:
C F B E G C

Key:
pm  - palm mute
a/h - artificial harmonic
^   - bend
~   - vibrato
/   - slide up
\   - slide down

C|--------------------------------------------------------------|
G|-----5----5----------5----5---------5----5----------5----5----|
E|-----4----3----------4----3---------4----3----------4----3----|
B|-2---------------2--------------2---------------2-------------|
F|-2---------------2--------------2---------------2-------------|
C|-0------0--------0------0-------0------0--------0------0------|

C|--------------------------------------------------------------|
G|--------------------------------------------------------------|
E|--------------------------------------------------------------|
B|--------------------------------------------------------------|
F|----7---7----------7---7----------7---7-----------7---7-------|
C|-0----0---6~----0----0---6~^----0----0---6~----0----0---6^----|
     (--pm--)     pm
C|--------------------------------------------------------------|
G|--------------------------------------------------------------|
E|--------------------------------------------------------------|
B|--------------------------------------------------------------|
F|-2--2--2--2--7-----7------7------7--5-------------------------|
C|-0--0--0--0-----0-----6~-----5~-----3-------------------------|
      (-----------pm-----------)         (-----------pm-----------)
C|----------------------------------------------------------------------
G|----------------------------------------------------------------------
E|----------------------------------------------------------------------
B|----------------------------------------------------------------------
F|-2--------------------------------------------------------------------
C|-0--0--0--0--13-12-10-13-12-10-13--12--0--0--0--13-12-10-13-12-10-12--
(-------------pm-------------)        (---------pm--------)     (---pm--
------------------------------------------------------------------------
------------------------------------------------------------------------
------------------------------------------------------------------------
------------------------------------------------------------------------
-----------------------------------------------5-5-5--3-3-3--2----------
-0--0--0--0--13-12-10-13-12-10-13-12--0--0--0--3-3-3--1-1-1--0--0--0--0-
----pm-----------)         (-----------pm-----------)     (--------pm---
------------------------------------------------------------------------
------------------------------------------------------------------------
------------------------------------------------------------------------
------------------------------------------------------------------------
------------------------------------------------------------------------
-13-12-10-13-12-10-13--12--0--0--0--13-12-10-13-12-10-12--0--0--0--0--13
--pm----------)         (--------pm--------)
-----------------------------------------------------------------|
-----------------------------------------------------------------|
-----------------------------------------------------------------|
-----------------------------------------------------------------|
---------------------------------5-5-5--8-8-8--2-----------------|
-12-10-13-12-10-13--12--0--0--0--3-3-3--6-6-6--0-----------------|

C|---------------------------------------------------------------|
G|---0-----0-----0-----0-----0-----0-----0-----0-----0-----------|
E|---------------------------------------------------------------|
B|---------------------------------------------------------------|
F|-2----------------0-----3-----2--------------------------------|
C|------3-----2-----------------------3-----2-----0--------------|
  *last part of verse*
C|---------------------------------------------------------------|
G|---0-----0-----0-----0-----0-----0-----0-----0-----0-----------|
E|---------------------------------------------------------------|
B|---------------------------------------------------------------|
F|-2----------------0-----3-----2--------------------------------|
C|------3-----2-----------------------3-----2-----1--------------|
       (pm)                              a/h            (pm)
C|----------------------------------------------------------------------
G|----------------------------------------------------------------------
E|----------------------------------------------------------------------
B|----------------------------------------------------------------------
F|-2---------5---2-----4---2-----3---/5-4-3~--0--2--2---------5---2-----
C|-0---0--2--3------3--2------2--1------------------0---0--2--3------3--
                                                                  a/h
------------------------------------------------------------------------
--------------------------0-----------0-----------0---------------------
------------------------------------------------------------------------
-----------------5--5---------------------------------------------------
-4---2-----3--3--3--3--2-----------5-----2-----4-----2-----3--/5-4-3~---
-2------2--1--1--------0-----0--2--3--------3--2--------2--1------------

-----------------------------------------------------------------|
----------0-----------0-----------0------------------------------|
-----------------------------------------------------------------|
-------------------------------------------------5--5------------|
-0--2--2-----------5-----2-----4-----2-----3--3--3--3------------|
-------0-----0--2--3--------3--2--------2--1--1------------------|
     (--pm--)     pm
C|--------------------------------------------------------------|
G|--------------------------------------------------------------|
E|--------------------------------------------------------------|
B|--------------------------------------------------------------|
F|-2--2--2--2--7-----7------7------7--5-------------------------|
C|-0--0--0--0-----0-----6~-----5~-----3-------------------------|
      (-----------pm-----------)         (-----------pm-----------)
C|----------------------------------------------------------------------
G|----------------------------------------------------------------------
E|----------------------------------------------------------------------
B|----------------------------------------------------------------------
F|-2--------------------------------------------------------------------
C|-0--0--0--0--13-12-10-13-12-10-13--12--0--0--0--13-12-10-13-12-10-12--
(-------------pm-------------)        (---------pm--------)     (---pm--
------------------------------------------------------------------------
------------------------------------------------------------------------
------------------------------------------------------------------------
------------------------------------------------------------------------
-----------------------------------------------5-5-5--3-3-3--2----------
-0--0--0--0--13-12-10-13-12-10-13-12--0--0--0--3-3-3--1-1-1--0--0--0--0-
----pm-----------)         (-----------pm-----------)     (--------pm---
------------------------------------------------------------------------
------------------------------------------------------------------------
------------------------------------------------------------------------
------------------------------------------------------------------------
------------------------------------------------------------------------
-13-12-10-13-12-10-13--12--0--0--0--13-12-10-13-12-10-12--0--0--0--0--13
--pm----------)         (--------pm--------)
-----------------------------------------------------------------|
-----------------------------------------------------------------|
-----------------------------------------------------------------|
-----------------------------------------------------------------|
---------------------------------5-5-5--8-8-8--2-----------------|
-12-10-13-12-10-13--12--0--0--0--3-3-3--6-6-6--0-----------------|

C|---------------------------------------------------------------|
G|---0-----0-----0-----0-----0-----0-----0-----0-----0-----------|
E|---------------------------------------------------------------|
B|---------------------------------------------------------------|
F|-2----------------0-----3-----2--------------------------------|
C|------3-----2-----------------------3-----2-----0--------------|
  *last part of verse*
C|---------------------------------------------------------------|
G|---0-----0-----0-----0-----0-----0-----0-----0-----0-----------|
E|---------------------------------------------------------------|
B|---------------------------------------------------------------|
F|-2----------------0-----3-----2--------------------------------|
C|------3-----2-----------------------3-----2-----1--------------|
       (pm)                              a/h            (pm)
C|----------------------------------------------------------------------
G|----------------------------------------------------------------------
E|----------------------------------------------------------------------
B|----------------------------------------------------------------------
F|-2---------5---2-----4---2-----3---/5-4-3~--0--2--2---------5---2-----
C|-0---0--2--3------3--2------2--1------------------0---0--2--3------3--
                                                                  a/h
------------------------------------------------------------------------
--------------------------0-----------0-----------0---------------------
------------------------------------------------------------------------
-----------------5--5---------------------------------------------------
-4---2-----3--3--3--3--2-----------5-----2-----4-----2-----3--/5-4-3~---
-2------2--1--1--------0-----0--2--3--------3--2--------2--1------------

-----------------------------------------------------------------|
----------0-----------0-----------0------------------------------|
-----------------------------------------------------------------|
-------------------------------------------------5--5------------|
-0--2--2-----------5-----2-----4-----2-----3--3--3--3------------|
-------0-----0--2--3--------3--2--------2--1--1------------------|
      a/h        a/h        a/h            a/h        a/h        a/h    a/h
C|-------------------------------------------------------------------------|
G|-------------------------------------------------------------------------|
E|-------------------------------------------------------------------------|
B|-------------------------------------------------------------------------|
F|-2---6~--------------5--4--3~---------2---6~--------------5--4--3~---6---|
C|-0--------0--1--2~--------------2--3--0--------0--1--2~----------------6~|
      a/h        a/h        a/h            a/h        a/h
C|------------------------------------------------------------------------|
G|------------------------------------------------------------------------|
E|------------------------------------------------------------------------|
B|----------------------------------------------------------------5-5-5-5-|
F|-2---6~--------------5--4--3~---------2---6~--------------5--4--3-3-3-3-|
C|-0--------0--1--2~--------------2--3--0--------0--1--2~-----------------|
-----*solo*-----
C|-0----0---0---0----0----10----9-----8---8---8---8---------------|
G|-0----0---0---0----0----10----9-----8---8---8---8---------------|
E|------------------------12----11----10--10--10--10--------------|
B|-2----5---4---3----2----12----11----10--10--10--10--------------|
F|-2----5---4---3----2----10----9-----8---8---8---8---------------|
C|-0----3---2---1----0--------------------------------------------|
       (pm)                              a/h            (pm)
C|----------------------------------------------------------------------
G|----------------------------------------------------------------------
E|----------------------------------------------------------------------
B|----------------------------------------------------------------------
F|-2---------5---2-----4---2-----3---/5-4-3~--0--2--2---------5---2-----
C|-0---0--2--3------3--2------2--1------------------0---0--2--3------3--
                                                                  a/h
------------------------------------------------------------------------
--------------------------0-----------0-----------0---------------------
------------------------------------------------------------------------
-----------------5--5---------------------------------------------------
-4---2-----3--3--3--3--2-----------5-----2-----4-----2-----3--/5-4-3~---
-2------2--1--1--------0-----0--2--3--------3--2--------2--1------------

-----------------------------------------------------------------|
----------0-----------0-----------0------------------------------|
-----------------------------------------------------------------|
-------------------------------------------------5--5------------|
-0--2--2-----------5-----2-----4-----2-----3--3--3--3------------|
-------0-----0--2--3--------3--2--------2--1--1------------------|
     (--pm--)     pm
C|--------------------------------------------------------------|
G|--------------------------------------------------------------|
E|--------------------------------------------------------------|
B|--------------------------------------------------------------|
F|-2--2--2--2--7-----7------7------7--5-------------------------|
C|-0--0--0--0-----0-----6~-----5~-----3-------------------------|
     (--pm--)     pm
C|--------------------------------------------------------------|
G|--------------------------------------------------------------|
E|--------------------------------------------------------------|
B|---------------------------------------2----------------------|
F|-2--2--2--2--7-----7------7------7--5--2----------------------|
C|-0--0--0--0-----0-----6~-----5~-----3--0----------------------|

© Авторские права на тексты, песни, видео и другую представленную информацию принадлежат правообладателям. Аккорды, табы, gtp и тексты песен взяты из открытых источников.
Возрастная категория сайта: 18+
Тексты некоторых песен могут содержать нецензурные выражения, брань.
© 2020 guitar-chords.ru