"Falling To Infinity"
Burning My Soul

bass intro (2 bars)
keyboard enter (1 bars)
with clean tone:
||-----------------|-----------------||
||-----------------|-----------------||
||-----------------|-----------------|| } 4 times
||-------15------12|-------14--------||
||-----14------14--|-----14----------||
||-----------------|-----------------||
   .   .   .   .     .   .   .   .
INTRO RIFF (dist):
||-----------------|-----------------||
||-----------------|-----------------||
||-----------------|-----------------||
||-2---2/8-2---2/5-|-2---2/7-2---2-3-|| } 6 times
||-2---2/8-2---2/5-|-2---2/7-2---2-3-||
||-0-0-0---0-0-0---|-0-0-0---0-0-0---||
   .   .   .   .     .   .   .   .

VERSE 1:
||-----------------||        |-----------------|
||-----------------||        |-----------------|
||-----------------||7 times |-----------------|
||-----------------||  then: |-3-------4-------|
||-----------------||        |-3-------4-------|
||-000-00-0000-00-0||        |-1-------2-------|
   .   .   .   .               .   .   .   .
  PM--------------/

VERSE 2:
||-----------------||        |---------|---------|-----------------|
||-----------------||        |---------|---------|-----------------|
||-----------------||5 times |---------|---------|-----------------|
||-----------------|| then:  |-7-------|-5-------|-3-------4-------|
||-----------------||        |-7-------|-5-------|-3-------4-------|
||-000-00-0000-00-0||        |-5-------|-3-------|-1-------2-------|
   .   .   .   .               . . . .   . . . .   .   .   .   .
 PM----/  -----/  -

PRE-CHORUS:
||-------------------------------------------|
||-------------------------------------------|
||-------------------------------------------|
||-------------------------------------------|
||-------------------------------------------|
||-0-10-12-0-10-12-0-10-12-0-10-12-0-10-12-0-|
   .         .          .          .
|-------------------------------------------|
|-------------------------------------------|
|-------------------------------------------|
|-------------------------------------------|
|-------------------------------------------|
|-10-12-0-10-12-0-10-12-0-10-12-0-10-12-0-10|
  .          .          .         .
|-------------------------------------------|
|-------------------------------------------|
|-------------------------------------------|
|-------------------------------------------|
|-------------------------------------------|
|-12-0-10-12-0-10-12-0-10-12-0-10-12-0-10-12|
  .          .         .          .
|---------------------------------------||
|---------------------------------------||
|---------------------------------------|| } reperat 2 times
|---------------------------------------||
|---------------------------------------||
|-0-10-12-0-10-12-0-10-7-11-5-7-3-5-2-3-||
  .         .          .        .

CHORUS #1:
           ||-----------------||
repeat     ||-----------------||
intro      ||-----------------|| } 4 times
riff       ||-----------------||
2 times    ||-----------------||
then:      ||-000-00-0000-00-0||
              .   .   .   .
            PM----/  -----/  -

VERSE 3:
exactly like verse 2

PRE-CHORUS:
see above

CHORUS #2:
           ||------------------||
repeat     ||------------------||
intro      ||------------------||
riff       ||triplet-----------||
4 times    ||-/=--------------||
then:      ||-000-0-0-000--000-||
              .    .   .   .

KEYBOARD SOLO:
repeat    ||-----------------|-----------------||
intro     ||-----------------|-----------------||
riff      ||-----------------|-----------------||
3 times   ||-2---2/8-2---2-5-|-----2-7---------||
then:     ||-2---2/8-2---2-5-|-----2-7---------||
          ||-0-0-0---0-0-0-3-|---0-0-5---0-0---||
             .   .   .   .     .   .   .   .
then: (time change here!)
|-------------|---------------|-------------|------------------|
|-------------|---------------|-------------|------------------|
3-------------7---------------3-------------4------------------| } 2 times
4-------------8---------------4-------------4------------------|
|-------------|---------------|-------------|-333--3-3333------|
|-000--0-0000-|-333--3-3333-3-|-555--5-5555-|------------------|
  .   .   .     .   .   .   .   .   .   .     .   .   .   .
(back in 4/4)
||-----------------|-----------------||
||-----------------|-----------------||
||-----------------|-----------------||
||-----------------|-----------------||
||-----------------|-----------------||
||-----------------|-----------------||
   .   .   .   .     .   .   .   .

PRE-CHORUS:
see above

CHORUS #3:
repeat intro riff 6 times, then end with E5 

© Авторские права на тексты, песни, видео и другую представленную информацию принадлежат правообладателям. Аккорды, табы, gtp и тексты песен взяты из открытых источников.
Возрастная категория сайта: 18+
Тексты некоторых песен могут содержать нецензурные выражения, брань.
© 2020 guitar-chords.ru