Erotomania

I started work on this a few days ago. Since then I hear it's
been transcribed by Guitar World and some British magazine. I don't
have enough spare time to sweat out stuff that's already been published,
so here's what I got done - the first four minutes. It's one hell of
a tune!
Oh yeah, I also forgot about Petrucci's 7-string axe. Thus your mileage
may vary here.

Key:
/   = slide
^   = hammer/pull
(b) = bend
%   = trill
v   = whammy hit

Intro:  Distorted organ arranged for guitar.
E -7---3------6---5------7---3------6---5-
B -7---3------4---5------7---3------4---5-
G -9---5------6---7------9---5------6---7-
D ----------------------------------------
A ----------------------------------------
E ----------------------------------------

Section 1:
E --------------------------------------- r
B --------------------------------------- e
G --------------------------------------- p  x 4
D --------------------------------------- e
A ---------2-5-4--------------4-7-6------ a
E -2-3-4-5-------3--0-4-5-6-7-------5--0- t
(0:22)
E ---------------------------------------
B ---------------------------------------
G ---------------------------------------
D ----------9-8~---6---------7-6---5-----
A ---7---7-------7------4-5----------3---
E (0)0-0-0------------0----------3-----1-

E ---------------------------------------------------
B ---------------------------------------------------
G ---------------------------------------------------
D ----------9-8~---6----3-5-7------1-3-5-------------
A ---7---7-------7------------5~\--------3~\---4-3-2-
E (0)0-0-0------------0------------------------------

E ---------------------------------------
B ---------------------------------------
G ---------------------------------------
D ----------9-8~---6---------7-5---5-----
A ---7---7-------7------4-5----------3---
E (0)0-0-0------------0----------3-----1-
                      *
E ---------------------------------------------------
B ---------------------------------------------------
G ---------------------------------------------------
D ----------9-8~---6----3-5-7------1-3-5-------------
A ---7---7-------7------------5~\--------3~\---4-3-2-
E (0)0-0-0------------0------------------------------

NB: at *, second guitar plays:  B---15-17-18--------13-15-16-------11-11-10-----
                                G-x----------14~\------------12~------------11~-
(play all of Section 1 again)
(1:13)
E ----------------------------- r
B ----------------------------- e
G ----------------------------- p
D ----------------------------- e
A ----------------------------- a
E -3~--2~--1~--0--3~--2~--1~-0- t

E ---------------------------------- r
B ---------------------------------- e
G ---------------------------------- p
D -5---4---3--2---5---7---10-10-9-9- e
A ---------------------------------- a
E ---------------------------------- t
  (palm-mute)
E ----------------------------------------------------- r
B ----------------------------------------------------- e
G ----------------------------------------------------- p
D -5-5-5---4-4-4---3-3-3---2-2-5-5-5---4-4-4---3-3-2-2- e
A -5-5-5---4-4-4---3-3-3---2-2-5-5-5---4-4-4---3-3-2-2- a
E -3-3-3---2-2-2---1-1-1---1-1-3-3-3---2-2-2---1-1-0-0- t
  (palm-mute)
E -----------
B -----------
G -7---6---5-
D -7---6---5-
A -5---4---3-
E -5---4---3-

Solo #1:  (largely speculative on my part)
E ------------------------------------------------------------------------
B -17(b)19~----14(b)15----12(b)14----14-13--------------------14-14-15-15-
G -----------------------------------------15-13--14-14-16-16-------------
D ------------------------------------------------------------------------
A ------------------------------------------------------------------------
E ------------------------------------------------------------------------

E --------------19-14-19-14-------14(b)15~--19-19-14-14-14-14-------------
B --17-------17-------------19-14-----------------------------14-14-12-12-
G -----14-16--------------------------------------------------------------
D ------------------------------------------------------------------------
A ------------------------------------------------------------------------
E ------------------------------------------------------------------------

E ----------------------------------------------14------------------------
B -----------------------------12-15-14------------------16-14-17-16------
G -13-13-13-13-------16-----------------12^0^12-------15-------------14%16
D ----------------14-------------------------------13---------------------
A -------------12-------14~\----------------------------------------------
E ------------------------------------------------------------------------

E -17-14-15-16-15-14--------------------------------------------------14~~
B -------------------17-16-15-14--14-15-17-15-14--------------------------
G -----------------------------------------------17-16-14-----------------
D --------------------------------------------------------17-16-15-14-----
A ------------------------------------------------------------------------
E ------------------------------------------------------------------------

E ----------19-19-21-19~\-
B -21-21-21---------------
G ------------------------
D ------------------------
A ------------------------
E ------------------------
(1:56)
E ----------------------------------------------------------------- r
B ----------------------------------------------------------------- e
G ----------------------------------------------------------------- p
D -------------------------------4--------------------------------- e
A ---------2-2-----------4---6-6---------2~--2-----------2-2-4-4--- a
E -4-4-2-4-----4-2-4-4-4-----------4-4-2-------4-2-4-4-4---------2- t
(2:10)
E ------------------------------------------------------------------------
B ------------------------------------------------------------------------
G ----------------------------------------------------------------1-------
D ------------------------------------------------1-1-------1---2---4-2-1-
A ---------1-1-------2-1-1---1--4^2^1-----2-2-1-2-----4-2-4---4-----------
E -4-4-2-4-----4-2-4-------4----------4-2---------------------------------

E ------------------------------------------------------------------------
B ------------------------------------------------------------------------
G ------------------------------------------------------------------------
D -----------------------------------------2-----2--1---------------------
A -2-1------------------------------------------------4-2--1----2-1--2--4-
E -----2-0-0-2--4--2--0--2-4--4/6--4--2-4-----4---------------4-----------

E --------------------------------------------------------------------------
B --------------------------------------------------------------------------
G --------------------------------------------------------------------------
D ----------------------------------------------------------------2---------
A -2--1---------------------------2-1-2--2-1-2--4--2-1------------2---------
E -------2-4-2-4--4-2-4/6--6-4-6-----------------------4-2-0--0-0-0-0-2^4^2-

E -------------------------------------------------------------
B -------------------------------------------------------------
G ----------------------------------------------3--------------
D --------4------------------6------------------3--------------
A --------4------------------6-----1^2^1-1-1-1--1-1-1----------
E -2-2-2--2-2-2-4^6^4-4-4-4--4-4-4--------------------2--4-2-4-
(clean, slightly muted)
E -------------------------------------------------------------------
B -------------------------------------------------4-2---2-4-2---2-4-
G -8---8-9-8---8-9--6---6-8-6---6-8--4---4-6-4---4-----1-------1-----
D ---6-------6--------4-------4--------2-------2---------------------
A -------------------------------------------------------------------
E -------------------------------------------------------------------

E -------------------------------------------------------------------
B -5---5-7-5---5-7---------------------------------------------------
G ---4-------4------6---6-8-6---6-8--4---4-6-4---4-6-3---3-4-3---3-4-
D --------------------4-------4--------2-------2-------4-------4-----
A -------------------------------------------------------------------
E -------------------------------------------------------------------
(let notes ring)
E --------0--------------0--------------0---------------0-----------
B ---4--------4-------0-----0--------0-----0---------0-----0--------
G -----4------------6--------------8--------------13---------13-----
D -6------------6-8------------8-9-----------9-11---------------11\-
A ------------------------------------------------------------------
E ------------------------------------------------------------------

E -------0---------------0--------------0--------------0--------
B -----0---0-----------0---0--------5------5---------0---0------
G ---4-------0-------3-------3--------4------4----11-------11---
D -2------------2--4-----------4--6-------------8-------------8-
A --------------------------------------------------------------
E --------------------------------------------------------------
(3:05) (distorted, let notes ring)
E ------------------------------------------------------------------
B ------------------------------------------------------------------
G ------4------4-4-----------4------4-4-----------4------4-4--------
D ------------------------------------------------------------------
A -2-------2--------2---2-------2--------2---2-------2--------2---2-
E ------------------------------------------------------------------

E -------------------------------------------------------------------
B -2-2-2-------------------------------------------------------------
G -4-4-4--4---4--4----4------4-4-----------4------4-4-----------4----
D -4-4-4--2---4--4---------------------------------------------------
A --------2---2--2-------2--------2---2-------2--------2---2-------2-
E -------------------------------------------------------------------

E -------------------------------
B -------------------------------
G --4-4------------4------4-4----
D -------------------------------
A -------2---2--------2--------2-
E -------------------------------

Solo #2:
    B5                C#5                 E5                F#5 
E --------------------------------------------------------------
B -\4~---5--7---5/7--\5-5---------------------------------------
G --------------4/6--\4-4-------------6-8-8(b)9~---8^9^8--------
D ----------------------6-------6-8-9--------------------9-/11~-
A --------------------------7-9---------------------------------
E --------------------------------------------------------------
                            ( palm-muted )
                                 B5                     C#5 
E ---------------------------------------------------------------------------
B ------------------------------------------------------12~---------11-12-13-
G -------11----11^13^11-------------\8--9--11--9~-------------11-13----------
D -------11----------------------------------------9-11----------------------
A -11^13----13----------11\9------9-------------------------------------------
E ---------------------------9/11-7-------------------------------------------
      E5                             F#5 
E -11-12~----------------------------------------16-19-16-------------------
B --------14(b)16-14~--11^12^11------12~---16-19----------19-16-------19-16-
G -----------------------------13-11----------------------------18-16-------
D --------------------------------------------------------------------------
A --------------------------------------------------------------------------
E --------------------------------------------------------------------------

E -----------------------------------
B -----------------------------------
G -18-16-------18-16-----------------
D -------18-16-------18-16-----------
A -------------------------17-16-17~-
E -----------------------------------
(3:42)  (the chord progression of the gods)
   D5              Bb                G5      D          A5  G5     C5     G 
E ----------------------------------------------------------------------------
B -3-------3-------3---6--6-6-6-5----8-8-8---7-7-7------10\-8-------------0-0-
G -2-------2-------3---3--3-3-3-3----7-7-7---7-7-7-------9\-7------5v5~---0-0-
D -0---0---0--x-x--3---3--3-3-3-3----5-5-5---7-7-7--x-x--7\-5-x-x--5v5~---0-0-
A -----0------x-x----------------------------5-5-5--x-x-------x-x--3v3--------
E ----------------------------------------------------------------------------

E ---------------------1------------------------------------------------------
B -3-------------------1-----6-------8-8-8---7-7-7------10\-8-------------0-0-
G -2---------------3---3--x--5--5----7-7-7---7-7-7-------9\-7------5v5~---0-0-
D -0---------------3---3--x--3--5----5-5-5---7-7-7--x-x--7\-5-x-x--5v5~---0-0-
A -0-----------0---1------------3------------5-5-5--x-x-------x-x--3v3--------
E ---------2-3----------------------------------------------------------------


© Авторские права на тексты, песни, видео и другую представленную информацию принадлежат правообладателям. Аккорды, табы, gtp и тексты песен взяты из открытых источников.
Возрастная категория сайта: 18+
Тексты некоторых песен могут содержать нецензурные выражения, брань.
© 2020 guitar-chords.ru