Hell's Kitchen

        fill 1
       ---0-----
       ---0-----
       ---1-----    ---play this part with wah-wah...
       ---2-----
       ---2-----
       ---0-----

       ---0-----                          ---------
       ---4-----                          ---5-----
       ---2-----    --- Aadd+11           ---2-----     --- A5 
       ---2-----                          ---2-----
       ---0-----                          ---0-----
       ---------                          ---------

E---|--------7-----------7-----|--------10-------------10-------|--------9----
B---|--------------------------|--------------------------------|-------------
G---|-----4-----4-----4--------|-----7--------7-----7-----------|-----6-------
D---|--------------------------|--------------------------------|-------------
A---|--------------------------|--------------------------------|-------------
E---|--0-----------0-----------|--0--------------0--------------|--0----------

                         wah...
E------------9-----|--6-------------|--------7-----------7-----|--------10----
B------------------|-----9----------|--------------------------|--------------
G---6-----6--------|--------7-9--9--|-----4-----4-----4--------|-----7--------
D------------------|--8--6----------|--------------------------|--------------
A------------------|--------5/7--7--|--------------------------|--------------
E------0-----------|----------------|--0-----------0-----------|--0-----------

                                                    fill 1
E---------------10-------|--------8-----------8-----||----------------||------
B------------------------|--------------------------||---0------------||------
G------7-----7-----------|-----5-----5-----5--------||*--------3-----*||------
D------------------------|--------------------------||*-----6-----6--*||------
A------------------------|--------------------------||----------------||------
E---------0--------------|--0-----------0-----------||----------------||------

    fill 1                            part a
E---||------------0------||--||--||---------------------------|---------------
B---||---------0---------||--||--||------------0-----------0--|--------0------
G---||*--3--------------*||--||--||*--------2-----------2-----|-----2---------
D---||*-----6--------6--*||--||--||*-----2-----------2--------|--0------------
A---||-------------------||--||--||---------------------------|---------------
E---||-------------------||--||--||---2-----------2-----------|---------------

                                           there is a mesure change couple of
                                           times during the guitar-solo
                                           (~part a)...
                                           ...so i would say you better hear
                                           the record!!!
E------------|---------------------------||-----------------------------------
B---------0--|-----------0-----------0---||--------5--------------------------
G------2-----|--------2-----------2-----*||--4~~~-----2--4--6-----2-----4-----
D---0--------|-----2-----------2--------*||--2~~~-----------------------------
A------------|---------------------------||-----------------------------------
E------------|--0-----------0------------||-----------------------------------

E---------------------5~--7~--5~--------5~--7~--7/9~--7-----9^----
B---5~--7~--9~--------------------3~----------------------------------
G-----------------------------------------------------------------------------
D-----------------------------------------------------------------------------
A-----------------------------------------------------------------------------
E-----------------------------------------------------------------------------

E------7--7/12-------12----|--------------------------------------------------
B--------------------------|--------------------------------------------------
G--------------------------|--------------------------------------------------
D--------------------------|--------------------------------------------------
A--------------------------|--------------------------------------------------
E--------------------------|--------------------------------------------------

oh man, how I hate these tab editor.
I think I'm going crazy now...#+!!?!##*...

E---|-----------14----17---16^----16-----------------------------17-----17/19-
B---|--15--17-------------------------17----15---15h17p1514-15------15-------
G---|-------------------------------------------------------------------------
D---|-------------------------------------------------------------------------
A---|-------------------------------------------------------------------------
E---|-------------------------------------------------------------------------

E-------19---17-------------19---17----------19---19^-19^-19---17--10h12--10--
B-----------------17---17-----------17---17-----------------------------------
G-----------------------------------------------------------------------------
D-----------------------------------------------------------------------------
A-----------------------------------------------------------------------------
E-----------------------------------------------------------------------------

E---9-10-12--12^--12^--12--10--9--10--10--12--10^-----------------------------
B--------------------------------------------------15--14--12--14--14^--12--14
G-----------------------------------------------------------------------------
D-----------------------------------------------------------------------------
A-----------------------------------------------------------------------------
E-----------------------------------------------------------------------------

E-----------------------------------------------------------------------------
B--15-14-12-14-15-14-12-14--15--17--17--17--17--17--15--14--15--17-17-17-17-17
G-----------------------------------------------------------------------------
D-----------------------------------------------------------------------------
A-----------------------------------------------------------------------------
E-----------------------------------------------------------------------------

                                                                         t
E------------------------------------------------------------17--19--19^-20---
B--15--14--15--17--15--14------17---------------------------------------------
G--------------------------16^-----16p14-------------16--18-------------------
D-----------------------------------------14/16--19---------------------------
A-----------------------------------------------------------------------------
E-----------------------------------------------------------------------------

                                                  fast
E--19---17-----19p17---------------19p16--------------------------------------
B----------------------------17-----------17------------------------------15--
G---------------------14/16-----16------------16--13--14--16---14--16--18-----
D-----------------------------------------------------------------------------
A-----------------------------------------------------------------------------
E-----------------------------------------------------------------------------

E----------------14--16--17^--17--16--17--16--14--16--17--16--14--12-|
B---17--17^--17------------------------------------------------------|
G--------------------------------------------------------------------|
D--------------------------------------------------------------------|
A--------------------------------------------------------------------|
E--------------------------------------------------------------------|

E--14--16--17-------------------
B-------------------------------
G-------------------------------
D-------------------------------
A-------------------------------
E-------------------------------

E---16-14--------|--14--16--17--16--14----|-14--16--19--16--14-----|-14--16---
B----------17----|----------------------17|--------------------17--|----------
G----------------|------------------------|------------------------|----------
D----------------|------------------------|------------------------|----------
A----------------|------------------------|------------------------|----------
E----------------|------------------------|------------------------|----------

E--17--16--14------|--14--16--19--16--14-----|-14--16--17--16-------------
B--------------17--|---------------------17--|-----------------17--15--14-
G------------------|-------------------------|----------------------------
D------------------|-------------------------|----------------------------
A------------------|-------------------------|----------------------------
E------------------|-------------------------|----------------------------

E-------------------------------------------
B-------14-15--17--15--14--15--17--15--14--
G---16--------------------------------------
D-------------------------------------------
A-------------------------------------------
E-------------------------------------------

        Aadd+11                          A 
E-||--------------------------------|-------------
B-||----16~--17-------------------|----14~----
G-||--------------------------------|-------------
D-||--------------------------------|-------------
A-||--------------------------------|-------------
E-||--------------------------------|-------------

     Aadd+11            A5                wah
E-|------------------|--------------|------------------------------------
B-|--16~--17^------|--17~-------|-----16--16--16--16--16--17--1614--
G-|------------------|--------------|------------------------------------
D-|------------------|--------------|------------------------------------
A-|------------------|--------------|------------------------------------
E-|------------------|--------------|------------------------------------

E-|---------------------------------|
B-|--14--14--14--14--14--16--1412--|
G-|---------------------------------|
D-|---------------------------------|
A-|---------------------------------|
E-|---------------------------------|

E-|---------------------------------|--------------------------------|
B-|--12--12--12--12--12--14--1210--|--10--10--10--10--10--12--108--|
G-|---------------------------------|--------------------------------|
D-|---------------------------------|--------------------------------|
A-|---------------------------------|--------------------------------|
E-|---------------------------------|--------------------------------|

E-|--------------------------------------------
B-|-----7h8p75---5h7p54---4h5p42--2h4p2p0---
G-|--------------------------------------------
D-|--------------------------------------------
A-|--------------------------------------------
E-|--------------------------------------------

                      4x
E-||------------------||----------------------
B-||------------------||-----4-----5-----7----
G-||*--------2h4h6p4p*||----------------------
D-||*----------------*||----------------------
A-||------------------||----------------------
E-||------------------||----------------------
                               G        tr...
E------------------------4/||-------------------------------------------|-----
B------4-----5-----7-------||--0h3p0h3p---------------------------------|-----
G--------------------------||-------------------------------------------|-----
D--------------------------||-------------------------------------------|-----
A--------------------------||-------------------------------------------|-----
E--------------------------||-------------------------------------------|-----

    D5       tr...
E--------------------------------------------------||--||---------------------
B--------------------------------------------------||--||---------------------
G---0h2p0h2p---------------------------------------||--||*--------2--4--2-----
D--------------------------------------------------||--||*-----2--------------
A--------------------------------------------------||--||---------------------
E--------------------------------------------------||--||---0-----------------

E---|------------------||--||------------------|------------------||--||------
B---|------------------||--||------------------|------------------||--||------
G---|--------2--4--2--*||--||*--------2--4--2--|--------2--4--2--*||--||*-----
D---|-----2-----------*||--||*-----4-----------|-----4-----------*||--||*-----
A---|------------------||--||------------------|------------------||--||------
E---|--0---------------||--||---2--------------|--2---------------||--||------

                                                2x
E-------------------||-----||-------------------||--------------|-------------
B------------5------||-----||-------------------||--------------|-------------
G------2--4-----4--*||-----||*--------2--4--2--*||--------2--4--|--------2----
D---0--------------*||-----||*-----2-----------*||-----2--------|-----4-------
A-------------------||-----||-------------------||--------------|-------------
E-------------------||-----||---0---------------||--0-----------|--2----------

E---------|-----------------|-----------------|--------------||--||-----------
B---------|-----------------|-----------5-----|-----------5--||--||-----------
G---4--2--|--------2--4--2--|-----2--4-----4--|-----2--4-----||--||*----------
D---------|-----4-----------|--0--------------|--0-----------||--||*----------
A---------|-----------------|-----------------|--------------||--||-----------
E---------|--2--------------|-----------------|--------------||--||-----------

    keyboard-solo
E------------------------|-----------------------|-----------------------|----
B------------------------|-----------------------|-----------------------|----
G---------2--4--2-----4--|--------2--4--2-----4--|--------2--4--2-----4--|----
D------2-----------2-----|-----2-----------2-----|-----4-----------4-----|----
A------------------------|-----------------------|-----------------------|----
E---0--------------------|--0--------------------|--2--------------------|----

E-------------------------||--------------------------------------------------
B------------5------------||--------------------------------------------------
G------2--4-----4--2-----*||--------------------------7-----------------------
D---0-----------------0--*||-----6--7--6--7--9--6--7-----7--6--9--7--6--------
A-------------------------||--7-----------------------------------------7-----
E-------------------------||--------------------------------------------------

E------------------------------------------|----------------------------------
B------------------------------------------|----------------------------------
G------------7-----------------------------|--------------------------7-------
D---6--7--9-----7--6--7--6-----7-----7--9--|-----6--7--6--7--9--6--7-----7----
A---------------------------7-----7--------|--7-------------------------------
E------------------------------------------|----------------------------------

E---------------------------------------------------------------10-------12---
B---------------------------------------10-------10-------12------------------
G---------------------------------7--9--------9-------------------------------
D---6--9--7--6-----6--7--6--7--9----------------------------------------------
A---------------7-------------------------------------------------------------
E-----------------------------------------------------------------------------

E--|----------------------------------------------------------------------
B--|----------------------------------------------------------------------
G--|--------------------------7-----------------------------7-------------
D--|-----6--7--6--7--9--6--7-----7--6--9--7--6-----6--7--9-----7--6--7----
A--|--7-----------------------------------------7-------------------------
E--|----------------------------------------------------------------------

E---------------------|-----------------------------------|-------------------
B---------------------|-----------------------------------|-------------------
G---------------------|--------------------------7--------|-------------------
D---6-----7-----7--9--|-----6--7--6--7--9--6--7-----7--6--|-----8-----9-------
A------7-----7--------|--7--------------------------------|-------------------
E---------------------|-----------------------------------|-------------------

E-----------------------------------------------------------------------------
B-----------------------------------------------------------------------------
G------------------7----------------------------------------------------------
D------11----------------11----------9-----8h9p8------------------------------
A----------------------------------------------------11----------9-----7------
E-----------------------------------------------------------------------------

E---------------------------------------------------------|-------------------
B---------------------------------------------------------|-------------------
G---------------------------------------------------------|-------------------
D---------------------------------------------------------|-------------------
A------5-----------------------2-----4h5p4p2--------------|--5--4--2--1-------
E---------------9-----7-----6-----6-----------6--4--2--0--|--------------4----

           E5             F#5            G#5            C#/F           E 
E------||--------------|--------------|--------------|--------------|---------
B------||--------------|--------------|--------------|--------------|---------
G------||--------------|--------------|--------------|--------------|--3------
D------||--8--6--9--6--|--8--6--9--6--|--8--6--9--6--|--8--6--9--6--|---------
A------||--------------|--------------|--------------|--------------|---------
E---2--||--------------|--------------|--------------|--------------|---------

                F#5            G#5            A5             C#5 
E------------|--------------|--------------|--------------|-------------------
B------------|-----------4--|-----------4--|--2--4--5--7--|--9^9-----7-------
G---4--6^6--|--3--4--6-----|--3--4--6-----|--------------|-------------------
D------------|--------------|--------------|--------------|-------------------
A------------|--------------|--------------|--------------|-------------------
E------------|--------------|--------------|--------------|-------------------

                   G#/C              B5                 A5 
E---------------|-----------------|------------------|-------------|----------
B---5-----------|-----4--5--7~~~--|--5-----4h5p4-----|--5--4-------|----------
G---------------|--6--------------|---------------6--|--------62--|----------
D------6--------|-----------------|------------------|-------------|----------
A---------6--6--|-----------------|------------------|-------------|----------
E---------------|-----------------|------------------|-------------|----------

    F5                         G5             F5             G5 
E---------------------------|--------------|--------------|--------------|----
B---------------------------|--------------|--------------|--------------|----
G---------------4--2--5--2--|--4--2--5--2--|--4--2--5--2--|--4--2--5--2--|----
D---------------------------|--------------|--------------|--------------|----
A---------------------------|--------------|--------------|--------------|----
E---------------------------|--------------|--------------|--------------|----

    F5                   G5 
E---------------------|--------------|-----||---------------------------------
B---------------------|--------------|-----||---------------------------------
G------4--5--7--7^7--|--4--5--7-----|--7--||---------------------------------
D---------------------|-----------5--|--7--||---------------------------------
A---------------------|--------------|--5--||---------------------------------
E---------------------|--------------|--5--||---------------------------------
                                                I think I must relax now...
                                                this fuckin' tab-editor
                                                makes you sick,I've almost
                                                demolatet my PC...

© Авторские права на тексты, песни, видео и другую представленную информацию принадлежат правообладателям. Аккорды, табы, gtp и тексты песен взяты из открытых источников.
Возрастная категория сайта: 18+
Тексты некоторых песен могут содержать нецензурные выражения, брань.
© 2020 guitar-chords.ru