#табулатура

    
New Millennium

Played on a seven-string guitar.
His tab is 98 to 99% correct. This is my favorite song by
Dream Theater and I have spent a lot of time on this one.
And now you have the entire tab for this song, not just a part of it.

Clean guitar that plays harmony with keyboards.
                                                             4x
|---|------------------|-------------------|-------------------|
|---|------------------|-7------------5----|-7-----------5-----|
|-4-|-6---6----4-6-4-6-|-----4-6-4-6----6--|-----4-6-4-6---4---|
|-/-|-------4----------|---4---------------|---4--------------*|
|-4-|---4--------------|-------------------|------------------*|
|---|------------------|-------------------|-------------------|
|---|------------------|-------------------|-------------------|
Then the bass line, followed by keyboards,
then the guitars and drums come in.
|---|------------------|-------------|----------------|---|---------|
|---|------------------|-------------|----------------|---|---------|
|-4-|---------6~---|----4~---|------2~-1--|-3-|---------|
|-/-|------------------|-------------|----------------|-/-|--3----4-|
|-4-|-2/4--4---------4-|-------------|--2/4-----------|-4-|---------|
|---|------------------|-------------|----------------|---|---------|
|---|------------------|-------------|----------------|---|---------|

|---|------------------------|-------------|----------------|---|-----------|
|---|------------------------|-------------|----------------|---|-----------|
|-4-|------------6~-6/7--|--4--|-----2-1--------|-3-|--------1--|
|-/-|-------------------x----|-------------|------------3---|-/-|---4---|
|-4-|-----2/4--4--------4/5--|-------------|-2/4------------|-4-|-----------|
|---|------------------------|-------------|----------------|---|-----------|
|---|------------------------|-------------|----------------|---|-----------|

|---|-----------------|------------|-----------------|---|---------------|
|---|-----------------|------------|----9-------10---|---|---12-----12---|
|-4-|---------6-------|---4~~~-|----x-------x----|-3-|---x------x----|
|-/-|-----------------|------------|----6-------7----|-/-|---9------9----|
|-4-|---2/4-4------4--|------------|-----------------|-4-|---------------|
|---|-----------------|------------|-0---------------|---|---------------|
|---|-----------------|------------|-----------------|---|---------------|

|---|-----------------|------------|-----------------|---|---------------|
|---|-----------------|------------|----9-------10---|---|---9------7----|
|-4-|---------6-------|--4-|----x-------x----|-3-|---x------x----|
|-/-|-----------------|------------|----6-------7----|-/-|---6------4----|
|-4-|-----2/4-----4---|------------|-----------------|-4-|---------------|
|---|-----------------|------------|-0---------------|---|---------------|
|---|-----------------|------------|-----------------|---|---------------|

|---|----------------------|---|----------9----|---|---------------------14---|
|---|----------------------|---|------7/9---7--|---|--------12/14-----12------|
|-4-|--6----4-----------6--|-3-|----4----------|-4-|------9--------11---------|
|-/-|-----6---4--6----4----|-/-|--6------------|-/-|---11---------------------|
|-4-|--------------4-------|-4-|---------------|-4-|-9------------------------|
|---|----------------------|---|---------------|---|--------------------------|
|---|----------------------|---|---------------|---|--------------------------|

|---|----11---------------|
|---|-------------14------|
|-3-|-13---11-13-----13---|
|-/-|---------------------|
|-4-|---------------------|
|---|---------------------|
|---|---------------------|

|---|----------------------|---|----------9----|---|---------------------14--|
|---|----------------------|---|------7/9---7--|---|--------12/14-----12-----|
|-4-|--6----4-----------6--|-3-|----4----------|-4-|------9--------11--------|
|-/-|-----6---4--6----4----|-/-|--6------------|-/-|---11--------------------|
|-4-|--------------4-------|-4-|---------------|-4-|-9-----------------------|
|---|----------------------|---|---------------|---|-------------------------|
|---|----------------------|---|---------------|---|-------------------------|

|------------------------|
|----12------------------|
|-13----11-13------------|
|-----------------9-11~~-|
|--------------9---------|
|------------------------|
|------------------------|

|---|--------------|-----------------|---------------|-------------------|
|---|--------------|-----------------|---------------|-------------------|
|-4-|--------------|-----------------|---------------|-------------------|
|-/-|--------------|-----------------|---------------|-------------------|
|-4-|-4-4-4-4-4-2--|-----------------|--4-4-4-4-4-2--|--9-9-9-9-7-7-7-7--|
|---|--------------|--2-2-2-2-0-0-0--|---------------|-------------------|
|---|--------------|-----------------|---------------|-------------------|

|---|-----------------|------------------|--------------------|---------------|
|---|-----------------|------------------|--------------------|---------------|
|-4-|-----------------|------------------|--------6-6------6--|-6---4-6-6---6~|
|-/-|-----------------|------------------|--------------------|---------------|
|-4-|-4-4-4-4-4-2-2-2-|-2----------------|--4-4-4-----4--4----|---4-------4---|
|---|-----------------|---2-2-2-2-0-0-0--|--------------------|---------------|
|---|-----------------|------------------|--------------------|---------------|

|---|-----9----9-----|--9------7---7---|---9----9-----|--7--6-7-6----|
|---|-/9-----9----9--|------/7---------|/9----9----7--|------------7-|
|-4-|----------------|-----------------|--------------|--------------|
|-/-|----------------|-----------------|--------------|--------------|
|-4-|----------------|-----------------|--------------|--------------|
|---|----------------|-----------------|--------------|--------------|
|---|----------------|-----------------|--------------|--------------|

|---|-----9----9-------|-12--11--11-----|----9---9-9------|--7-----6----7--|
|---|-/9-----9----9-9--|-------------9--|-9----9-----97--|-----7-----7----|
|-4-|------------------|----------------|-----------------|----------------|
|-/-|------------------|----------------|-----------------|----------------|
|-4-|------------------|----------------|-----------------|----------------|
|---|------------------|----------------|-----------------|----------------|
|---|------------------|----------------|-----------------|----------------|
verse rhythm                            4x
|---|-----------|----|-----------|-----|-----------|--------|----------|-----|
|---|-----------|----|-----------|-----|-----------|--------|----------|-----|
|-4-|-----------|----|-----------|----*|-----------|--------|----------|-----|
|-/-|-----------|----|-----------|----*|-----------|--------|----------|-----|
|-4-|--4---4----|----|--4---4----|-----|--4-----4--|--------|--4-4-----|-----|
|---|--4---4----|----|--4---4----|-----|--4-----4--|--------|--4-4-----|-----|
|---|--2---2----|----|--2---2----|-----|--2-----2--|--------|--2-2-----|-----|

|---|-----------|----|-----------|------|--------|-----|
|---|-----------|----|-----------|------|--------|-----|
|-4-|-----------|----|-----------|------|--------|-----|
|-/-|-----------|----|-----------|------|--------|-----|
|-4-|--4---4----|----|--4-----4--|------|--4-4---|-----|
|---|--4---4----|----|--4-----4--|------|--4-4---|-----|
|---|--2---2----|----|--2-----2--|------|--2-2---|-----|

|---|-----------------------------|-------------------|
|---|-----------------------------|-------------------|
|-4-|------8~---------|---8~--|
|-/-|-----------------------------|-------------------|
|-4-|--4/6-------------------6----|-------------------|
|---|-----------------------------|-------------------|
|---|-----------------------------|-------------------|

|---|-----------------------------|------------------------|
|---|-----------------------------|------------------------|
|-4-|-------4~----3~~~----|------------------------|
|-/-|-----------------------------|--5~-6~--8--|
|-4-|--4/6------------------------|------------------------|
|---|-----------------------------|------------------------|
|---|-----------------------------|------------------------|

|---|----------------------|--------------------|------0-------------|
|---|----------------------|--------------------|------0-------------|
|-4-|-------8-8/9--|--96---------(6)--|--------------------|
|-/-|----------------------|--------------------|--2-----------------|
|-4-|--4/6-----------------|--------------------|--2-----------------|
|---|----------------------|--------------------|--0-------------0---|
|---|----------------------|--------------------|--------------------|

|---|---------0-----|---|-------------------------------|
|---|---------0-----|---|-------------------------------|
|-4-|---------------|-6-|-------------------------------|
|-/-|--2------------|-/-|-4------4------4------4--------|
|-4-|--2------------|-4-|-4------4------4------4--------|
|---|--0------------|---|---2--2---2--2---2--2---2--2---|
|---|---------------|---|-------------------------------|
                                                                            2x
|----|-----------------------------------|------------------------------------|
|----|-----------------------------------|------------------------------------|
|-12-|-----------------------------------|------------------------------------|
|--/-|*------------2---------------------|--------------2--------------------*|
|--8-|*-4p2-4~---4p2---4------54----|--4p2-4~~---4p2---4------54---*|
|----|-------------------4----0-2-32--0-|--------------------4----0-2-32--0-|
|----|-----------------------------------|------------------------------------|
                                                                            4x
|---|-----------------------------------|------------------------------------|
|---|-----------------------------------|------------------------------------|
|-6-|-----------------------------------|------------------------------------|
|-/-|*------------2---------------------|--------------2--------------------*|
|-4-|*-4p2-4~---4p2---4------54----|--4p2-4~~---4p2---4------54---*|
|---|-------------------4----0-2-32--0-|--------------------4----0-2-32--0-|
|---|-----------------------------------|------------------------------------|

|---|-------------------------------|-----------------------------|
|---|--14---------12---------14-----|----12---------14----12------|
|-4-|----------13----11--13---------|-13----11--10-----13-----11--|
|-/-|------11-------------------11--|-----------------------------|
|-4-|-------------------------------|-----------------------------|
|---|-------------------------------|-----------------------------|
|---|-------------------------------|-----------------------------|

|-----------------------------|----------------------------------------|
|-14-------12---------14------|----12---------12-11--------12-13-------|
|-------13----11--13----------|-13----11--13---------13-11-------13-11-|
|----11------------------11---|----------------------------------------|
|-----------------------------|----------------------------------------|
|-----------------------------|----------------------------------------|
|-----------------------------|----------------------------------------|

|--------------------------------|-----------------------------------|
|--14----------12--------14------|-----12----------14-------12-------|
|----------13------11-13---------|-13------11--13-------13------11---|
|------11--------------------11--|-----------------------------------|
|--------------------------------|-----------------------------------|
|--------------------------------|-----------------------------------|
|--------------------------------|-----------------------------------|

|------------------------------|---------------------------------------|
|-14-------12----------14------|----12----------12-11----------12-11---|
|-------13-----11--13----------|-13-----11--13----------11-13----------|
|----11--------------------11--|---------------------------------------|
|------------------------------|---------------------------------------|
|------------------------------|---------------------------------------|
|------------------------------|---------------------------------------|

|-------------------------|---------------------------|-----------------------|
|-14-------12-------14----|----12---------14----12----|-14-------12------14---|
|-------13----11-13-------|-13-----11-13-----13----11-|-------13----11-13-----|
|----11----------------11-|---------------------------|----11--------------11-|
|-------------------------|---------------------------|-----------------------|
|-------------------------|---------------------------|-----------------------|
|-------------------------|---------------------------|-----------------------|
                               Trill - - -|
|---|----------------------|---------------------------|
|---|----------------------|---------------------------|
|-4-|*-------6-------------|---4--6--4--6--4---|
|-/-|*---------------------|---------------------------|
|-4-|----2/4-----------4---|---------------------------|
|---|----------------------|---------------------------|
|---|----------------------|---------------------------|

|--------------------------|------------------|-------------------------|
|--------------------------|------------------|-------------------------|
|-------2-------2p1~-|---------------1--|------6~~~-6---9p--|
|--------------------------|--3----4----------|-------------------------|
|---2/4--------------------|------------------|--2/4--------------------|
|--------------------------|------------------|-------------------------|
|--------------------------|------------------|-------------------------|
      Trill- - - - |                                               2x
|----------------------------|-------------------|-------------------|
|----------------------------|-------------------|-------------------|
|--H7--4----6--4-6-4~--|-----2----2p1~~~-|----------------1--|
|----------------------------|-------------------|--3-----4---------*|
|----------------------------|-2/4---------------|------------------*|
|----------------------------|-------------------|-------------------|
|----------------------------|-------------------|-------------------|

|---|-------------------|-------------------|----------------------|
|---|-------------------|-------------------|----------------------|
|-4-|-------------------|-------------------|----------------------|
|-/-|-------------------|----------------2--|----------------------|
|-4-|-------------------|----------------2--|----------------------|
|---|--------------2----|----------------0--|-----------------2----|
|---|--4-2-4-4-2-4---2--|-4-4-4-4-2-4-2-----|--4-4-2-4-4-2-4----2--|

|-------------------|-------------------|-----------------------|
|-------------------|-------------------|-----------------------|
|-------------------|-------------------|-----------------------|
|-----------------2-|-------------------|-----------------------|
|-----------------2-|-------------------|-----------------4-6---|
|-----------------0-|--------------2----|--------------/6-------|
|--4-4-4-4-2-4-2----|--4-2-4-4-2-4---2--|-4-4-4-4-2--4----------|

|--------0-----|---------0----|
|--------0-----|---------0----|
|--------------|--------------|
|--2-----------|--2-----------|
|--2-----------|--2-----------|
|--0-----------|--0-----------|
|--------------|--------------|

|---|-------------------------------|
|---|-------------------------------|
|-6-|--3------3------3------3-------|
|-/-|--4------4------4------4-------|
|-4-|--4------4------4------4-------|
|---|----2--2---2--2---2--2---2--2--|
|---|-------------------------------|

|----|--------------------------|------------------------------|
|----|--------------------------|------------------------------|
|-12-|--------------------------|------------------------------|
|-/--|--------------------------|------------------------------|
|-8--|------------4-------------|----------------------2--4----|
|----|--------0-2---0-0-2-3-2-0-|--------0-2-4-0-2-3-4---------|
|----|--2-2-2-------------------|--2-2-2-----------------------|

|---------------------------|--------------------------|
|---------------------------|--------------------------|
|---------------------------|--------------------------|
|---------------------------|--------------------------|
|------------4--------------|-------------4---2--------|
|--------0-2---0-0-2-3-2-0--|-------0-2/4---4---2-3-0--|
|--2-2-2--------------------|-2-2-2--------------------|

|---|--------------------------|------------------------------|
|---|--------------------------|------------------------------|
|-6-|--------------------------|------------------------------|
|-/-|--------------------------|------------------------------|
|-4-|------------4-------5-4---|--------------------5-4-------|
|---|--------0-2---0-0-2-3-2-0-|--------0-2-4-2-0-2-3-2--0----|
|---|--2-2-2-------------------|--2-2-2-----------------------|

|--------------------------|--------------------------|
|--------------------------|--------------------------|
|--------------------------|--------------------------|
|--------------------------|--------------------------|
|------------4-------5-4---|--------2-4---------5-4---|
|--------0-2-----0-2-3-2-0-|--------0-2-----0-2-3-2-0-|
|--2-2-2-------2-----------|--2-2-2-----2-2-----------|

|---|-------------------------------|-----------------------------|
|---|--14---------12---------14-----|----12---------14----12------|
|-4-|----------13----11--13---------|-13----11--10-----13-----11--|
|-/-|------11-------------------11--|-----------------------------|
|-4-|-------------------------------|-----------------------------|
|---|-------------------------------|-----------------------------|
|---|-------------------------------|-----------------------------|

|-----------------------------|----------------------------------------|
|-14-------12---------14------|----12---------12-11--------12-13-------|
|-------13----11--13----------|-13----11--13---------13-11-------13-11-|
|----11------------------11---|----------------------------------------|
|-----------------------------|----------------------------------------|
|-----------------------------|----------------------------------------|
|-----------------------------|----------------------------------------|

|--------------------------------|-----------------------------------|
|--14----------12--------14------|-----12----------14-------12-------|
|----------13------11-13---------|-13------11--13-------13------11---|
|------11--------------------11--|-----------------------------------|
|--------------------------------|-----------------------------------|
|--------------------------------|-----------------------------------|
|--------------------------------|-----------------------------------|

|------------------------------|---------------------------------------|
|-14-------12----------14------|----12----------12-11----------12-11---|
|-------13-----11--13----------|-13-----11--13----------11-13----------|
|----11--------------------11--|---------------------------------------|
|------------------------------|---------------------------------------|
|------------------------------|---------------------------------------|
|------------------------------|---------------------------------------|

|-------------------------|---------------------------|-----------------------|
|-14-------12-------14----|----12---------14----12----|-14-------12------14---|
|-------13----11-13-------|-13-----11-13-----13----11-|-------13----11-13-----|
|----11----------------11-|---------------------------|----11--------------11-|
|-------------------------|---------------------------|-----------------------|
|-------------------------|---------------------------|-----------------------|
|-------------------------|---------------------------|-----------------------|

|---|----------|--------------------|-----------------|---|--------------|
|---|--14-----|--------------------|-----------------|---|--------------|
|-4-|--13-----|--------------------|-----------------|-3-|--------------|
|-/-|----------|--------------------|-----------------|-/-|--------------|
|-4-|----------|--------------------|-----------------|-4-|--------------|
|---|----------|--------------------|-----------------|---|--------------|
|---|----------|--------------------|-----------------|---|--------------|
 Vol. swells                   
|---|---------------|---------------|---------------|---|-----------------|
|---|---------------|---------------|---------------|---|-----------------|
|-4-|------11-(11)|-|--9----(9)-----|-3-|-----------------|
|-/-|-------9-(-9)|-|--9----(9)-----|-/-|-----------------|
|-4-|---------------|---------------|---------------|-4-|-----------------|
|---|---------------|---------------|---------------|---|-----------------|
|---|---------------|---------------|---------------|---|-----------------|
         
|---|---------------|----------------|----------9~|~|~-|
|---|---------------|----------------|---11-----------|---|------------|
|-4-|--13~|~~~-9-----|----------------|-3-|------------|
|-/-|--11~|~~~-------|----------------|-/-|------------|
|-4-|---------------|----------------|----------------|-4-|------------|
|---|---------------|----------------|----------------|---|------------|
|---|---------------|----------------|----------------|---|------------|

|---|--14|~(14)---|-12|~||
|---|------------------|-----------------|-------------------|---|------------|
|-4-|------------------|-----------------|-------------------|-3-|------------|
|-/-|------------------|-----------------|-------------------|-/-|------------|
|-4-|------------------|-----------------|-------------------|-4-|------------|
|---|------------------|-----------------|-------------------|---|------------|
|---|------------------|-----------------|-------------------|---|------------|

|---|--16|~--18-|-19~~-21---|---------(21)--|
|---|------------|----------------------|-------------------|----------------|
|-4-|------------|----------------------|-------------------|----------------|
|-/-|------------|----------------------|-------------------|----------------|
|-4-|------------|----------------------|-------------------|----------------|
|---|------------|----------------------|-------------------|----------------|
|---|------------|----------------------|-------------------|----------------|

|---|------------------|-----------------|------------------|---|-------------|
|---|------------------|-----------------|------------------|---|-------------|
|-4-|--6-----4-----6---|---4-----6---4---|-6-----4-----6----|-3-|------6---4--|
|-/-|------6---4-6-----|-6---4-6---6---4-|-----6---4-6------|-/-|--4-6-------4|
|-4-|----4-----------4-|-----------------|---4-----------4--|-4-|--------4----|
|---|------------------|-----------------|------------------|---|-------------|
|---|------------------|-----------------|------------------|---|-------------|

|---|------------------|-----------------|------------------|---|-------------|
|---|------------------|-----------------|------------------|---|-------------|
|-4-|--6-----4-----6---|---4-----6---4---|-6-----4-----6----|-3-|----4-----4--|
|-/-|------6---4-6-----|-6---4-6---6---4-|-----6---4-6------|-/-|--6---4-6---4|
|-4-|----4-----------4-|-----------------|---4-----------4--|-4-|-------------|
|---|------------------|-----------------|------------------|---|-------------|
|---|------------------|-----------------|------------------|---|-------------|
Now it’s the cool bass driven interlude
clean Gtr.
|---|-----------------9----|------9---------|-11-9-----------|--------------|
|---|----------9-----x--9--|--7-9--9-7---9--|--9-9--9--------|--------------|
|-4-|---------------x------|----------------|-------9--------|--9-x-x-x-9---|
|-/-|-11-11-11---11--------|----------------|---------11--9--|--9-x-x-x-9---|
|-4-|----------------------|----------------|---------11--9--|--------------|
|---|----------------------|----------------|----------------|--------------|
|---|----------------------|----------------|----------------|--------------|

|---|-----------------------9-------|-14-14-14-14-14-14-14--14-14-------------|
|---|-11---11-11--9--x--x--11--x-x--|-12-12-12-12-12-12-12--12-12--x-14-x-9-x-|
|-4-|-11---11-11--9--x--x---9--x-x--|------------------------------x--x-x-9-x-|
|-/-|-------------------------------|--------------------------------11-------|
|-4-|-------------------------------|-----------------------------------------|
|---|-------------------------------|-----------------------------------------|
|---|-------------------------------|-----------------------------------------|

|------------------9-----9------9--|---|------9---------------------|
|---------9--x-x---9-----9------9--|---|--x---9---x--x--9-----------|
|-13--x-x-9--x-x--11----11-----11--|-3-|--x--11---x--x--9-----------|
|--x--x-x--------------------------|-/-|----------------------------|
|-11-------------------------------|-4-|----------------------------|
|----------------------------------|---|----------------------------|
|----------------------------------|---|----------------------------|
                                                                           6x
|---|------------------|-----------------|-----------------|---|--------------|
|---|------------------|-----------------|-----------------|---|--------------|
|-4-|*-4---3-----4---3-|-----4---3---4---|-4---3-----4---3-|-3-|-----4---3---*|
|-/-|*---4---4-2---4---|-4-2---4---2---4-|---4---4-2---4---|-/-|-4-2---4---2-*|
|-4-|------------------|-----------------|-----------------|-4-|--------------|
|---|------------------|-----------------|-----------------|---|--------------|
|---|------------------|-----------------|-----------------|---|--------------|

|---|-------------------------|---------------------------------------|
|---|-------------------------|---------------------------------------|
|-3-|-16----15-------16----15-|-------15----16-15---------------------|
|-/-|----16----16-14----16----|-16-14----16-------16-14---------------|
|-4-|-------------------------|-------------------------16-14---------|
|---|-------------------------|-------------------------------16-14---|
|---|-------------------------|---------------------------------------|

|----------------------------------|------------------------------|
|----------------------------------|------------------------------|
|-16----15-------15----16-15-------|------------------------------|
|----16----16-14----16-------16-14-|-16-14-16-14------------------|
|----------------------------------|-------------16-14------------|
|----------------------------------|-------------------18-16-14---|
|----------------------------------|------------------------------|

|---|-------------------------|---------------------------------------|
|---|-------------------------|--------------17-14--------------------|
|-4-|-16----15-------16----15-|-------15-----------16-15--------------|
|-/-|----16----16-14----16----|-16-14----16--------------16-14--------|
|-4-|-------------------------|--------------------------------16-14--|
|---|-------------------------|---------------------------------------|
|---|-------------------------|---------------------------------------|

|-----------------------------------|---|----------------------------------|
|-----------------14----17-14-------|---|----------------------------------|
|-16----15-----------15-------16-15-|-3-|-16-15-16-15-------16-18-16-13----|
|----16----16-14--------------------|-/-|-------------16-14-------------14-|
|-----------------------------------|-4-|----------------------------------|
|-----------------------------------|---|----------------------------------|
|-----------------------------------|---|----------------------------------|

|---|--------------------------|---|----------------------------------------|
|---|--------------------------|---|----------------------------------------|
|-4-|-14----13-------14----13--|-5-|----11-------14-13-------14-13-------13-|
|-/-|----14----14-12----14-----|-/-|-14----14-12-------14-12-------14-12----|
|-4-|--------------------------|-4-|----------------------------------------|
|---|--------------------------|---|----------------------------------------|
|---|--------------------------|---|----------------------------------------|

|------------------------|
|------------------------|
|------------------------|
|-14-12----14-12---------|
|-------14-------14-12---|
|------------------------|
|------------------------|

|---|-----------------------------|-------------------------------------------|
|---|-----------------------------|---------------------------------------/14-|
|-4-|-14----13----11-------13-----|-14-13----------------13-14-16----13-14----|
|-/-|----14----14----14-12----14--|-------14-12-12-14-16----------16----------|
|-4-|-----------------------------|-------------------------------------------|
|---|-----------------------------|-------------------------------------------|
|---|-----------------------------|-------------------------------------------|

|----------------14-16-17--------|
|-15-17-14-15-17-----------------|
|--------------------------------|
|--------------------------------|
|--------------------------------|
|--------------------------------|
|--------------------------------|

|---|-------------------------|---------------------------------------|
|---|-------------------------|---------------------------------------|
|-4-|-16----15-------16----15-|-------15----16-15---------------------|
|-/-|----16----16-14----16----|-16-14----16-------16-14---------------|
|-4-|-------------------------|-------------------------16-14---------|
|---|-------------------------|-------------------------------16-14---|
|---|-------------------------|---------------------------------------|

|----------------------------------|---|------------------------------|
|----------------------------------|---|------------------------------|
|-16----15-------15----16-15-------|-3-|------------------------------|
|----16----16-14----16-------16-14-|-/-|-16-14-16-14------------------|
|----------------------------------|-4-|-------------16-14------------|
|----------------------------------|---|-------------------18-16-14---|
|----------------------------------|---|------------------------------|

                                                   *The higher notes are synth
|---|--------------------------|---|-------------22-19-------19---------------|
|---|--------------------------|---|-------------------22-21----22-21----22-22|
|-4-|-14-----13-------14----13-|-5-|----11-------14-13-------13-------21------|
|-/-|----14-----14-12----14----|-/-|-14----14-12-------14-12----14-12----14-12|
|-4-|--------------------------|-4-|----------------------------------14------|
|---|--------------------------|---|------------------------------------------|
|---|--------------------------|---|------------------------------------------|

|-------|
|-------|
|-21-19-|
|-------|
|-14-12-|
|-------|
|-------|

|---|----------------------------|---|-------------------------|---|----------|
|---|----------------------------|---|-------------------------|---|----------|
|-4-|-14----13----11-------13----|-2-|-14-13-------13----13----|-5-|----------|
|-/-|----14----14----14-12----14-|-/-|-------14-12----14----14-|-/-|-12----12-|
|-4-|----------------------------|-4-|-------------------------|-8-|----14----|
|---|----------------------------|---|-------------------------|---|----------|
|---|----------------------------|---|-------------------------|---|----------|
                                                               *Feedback
|----------|---|-------------|---|---------------|-----|-----|----------------|
|----------|---|-------------|---|---------------|-----|-----|----------------|
|----------|-2-|-7-4---------|-4-|---------------|-----|-----|----------------|
|----------|-/-|-----7-6-4---|-/-|---------------|-----|-----|9(9)(9)(9)(9)(9)|
|-14-12-11-|-4-|-----------5-|-4-|-4~~~-(4)-|-----|-----|----------------|
|----------|---|-------------|---|---------------|-----|-----|----------------|
|----------|---|-------------|---|---------------|-----|-----|----------------|

|---|-------------------------|-------------------------|---------------------|
|---|-------------------------|-------------------------|---------------------|
|-6-|-------------------------|-------------------------|---------------------|
|-/-|-------------------------|-------------------------|---------------------|
|-4-|-------------------------|-------------------------|---------------------|
|---|-------0-2-----0-2-3-2-0-|-------0-2-----0-2-3-2-0-|-------0-2----0-2-3-2|
|---|-2-2-2-----2-2-----------|-2-2-2-----2-2-----------|-2-2-2-----2-2-------|

|---|-------------------------|-------------------------|---------------------|
|---|-------------------------|-------------------------|---------------------|
|---|-------------------------|-------------------------|---------------------|
|---|-------------------------|-------------------------|---------------------|
|---|-------------------------|-------------------------|---------------------|
|-0-|-------0-2-----0-2-3-2-0-|-------0-2-----0-2-3-2-0-|-------0-2----0-2-3-2|
|---|-2-2-2-----2-2-----------|-2-2-2-----2-2-----------|-2-2-2-----2-2-------|

|---|-------------------------|---|-------------------------|
|---|-------------------------|---|-------------------------|
|---|-------------------------|-4-|-------------------------|
|---|-------------------------|-/-|-------------------------|
|---|-------------------------|-4-|-------------------------|
|-0-|-------0-2-----0-2-3-2-0-|---|-------0-2-----0-2-3-2-0-|
|---|-2-2-2-----2-2-----------|---|-2-2-2-----2-2-----------|

|---|-----------------------------------------|
|---|-5-4-5-4-5-4-----5-----------------------|
|-4-|-------------6-4---5-4-------4-----------|
|-/-|-----------------------6-4-----6-4-------|
|-4-|---------------------------7-------7-4---|
|---|---------------------------------------7-|
|---|-----------------------------------------|

|---|--------------|-----------------|---------------|-------------------|
|---|--------------|-----------------|---------------|-------------------|
|-4-|--------------|-----------------|---------------|-------------------|
|-/-|--------------|-----------------|---------------|-------------------|
|-4-|-4-4-4-4-4-2--|-----------------|--4-4-4-4-4-2--|--9-9-9-9-7-7-7-7--|
|---|--------------|--2-2-2-2-0-0-0--|---------------|-------------------|
|---|--------------|-----------------|---------------|-------------------|

|---|-----------------|------------------|--------------------|---------------|
|---|-----------------|------------------|--------------------|---------------|
|-4-|-----------------|------------------|--------6-6------6--|-6---4-6-6--6~-|
|-/-|-----------------|------------------|--------------------|---------------|
|-4-|-4-4-4-4-4-2-2-2-|-2----------------|--4-4-4-----4--4----|---4-------4---|
|---|-----------------|---2-2-2-2-0-0-0--|--------------------|---------------|
|---|-----------------|------------------|--------------------|---------------|

|---|-----9------9--------|--9------7-6-----7-6------|
|---|-/9------9-----9--9--|-------------7-5-----7-5--|
|-4-|---------------------|--------------------------|
|-/-|---------------------|--------------------------|
|-4-|---------------------|--------------------------|
|---|---------------------|--------------------------|
|---|---------------------|--------------------------|

|---|-----9------9------|---7--7----6-------7----|
|---|-/9------9-----97-|------7--------7--------|
|-4-|-------------------|------------------------|
|-/-|-------------------|------------------------|
|-4-|-------------------|------------------------|
|---|-------------------|------------------------|
|---|-------------------|------------------------|

|---|-----9------9--------|--9------7-6-----7-6-----7-6-------|
|---|-/9------9-----9--9--|-------------7-5-----7-5-----7-5---|
|-4-|---------------------|-----------------------------------|
|-/-|---------------------|-----------------------------------|
|-4-|---------------------|-----------------------------------|
|---|---------------------|-----------------------------------|
|---|---------------------|-----------------------------------|

|---|------9------9---------|--7--7----6-----7-----|
|---|--/9------9-----97----|-----7-------7--------|
|-4-|-----------------------|----------------------|
|-/-|-----------------------|----------------------|
|-4-|-----------------------|----------------------|
|---|-----------------------|----------------------|
|---|-----------------------|----------------------|

|---|-------------------------|------------------------|
|---|-------------------------|------------------------|
|-4-|--6--------4------6------|---4-------6-----4------|
|-/-|--------6-----4-6--------|-6----4--6----6----4----|
|-4-|-----4---------------4---|------------------------|
|---|-------------------------|------------------------|
|---|-------------------------|------------------------|

|---|-------------------------|--------------------------|
|---|-------------------------|--------------------------|
|-4-|--6--------4--------6----|----4-------4-----6~--|
|-/-|--------6-----4--6-------|-6-----4-6-----4----------|
|-4-|-----4----------------4--|--------------------------|
|---|-------------------------|--------------------------|
|---|-------------------------|--------------------------|

© Авторские права на тексты, песни, видео и другую представленную информацию принадлежат правообладателям. Аккорды, табы, gtp и тексты песен взяты из открытых источников.
Возрастная категория сайта: 18+
Тексты некоторых песен могут содержать нецензурные выражения, брань.
© 2022 guitar-chords.ru