"Scenes From A Memory"
Through Her Eyes (act I-scene Five)

Legend
------
h  = hammer-on
p  = pull-off
b  = bend
r  = bend release
/  = slide up
\  = slide down
= natural harmonic
~  = vibrato
during the intro-vocal part
Echo repeats
00:12       00:24         00:28                 00:36
                                                     bend before picking
E----------|-------------|--------------------------|--*----------------------|
B------10--|-------------|-15b17r15--15-15-14-14\12-|-15r14-12-10-12----------|
G-9b11-----|-11\9-7-9b11-|--------------------------|----------------11-9\7-7-|
D----------|-------------|--------------------------|-------------------------|
A----------|-------------|--------------------------|-------------------------|
E----------|-------------|--------------------------|-------------------------|
00:51
                     ~          ~
E-17b19r17-15-----------------------
B-------------19-15-17---19-15-17---
G-----------------------------------
D-----------------------------------
A-----------------------------------
E-----------------------------------
central solo
02:21
      ~            ~            ~             ~           ~
E----------------------------------------------------------------
B---/12--12b13r12--------10-/12----------------------------------
G-7---------------12--12--------9---12-11------------------------
D-----------------------------------------9-/10----9-/10-9------
A----------------------------------------------------------------
E----------------------------------------------------------------
final solo
04:39
    ~          ~              ~              ~
E----------------------------------------------------------------
B---/12--12\10\8-------10-/12------------------------------------
G-7-----------------12--------9---12-11--------------------------
D----------------------------------------9-/10----9-/10----------
A----------------------------------------------------------------
E----------------------------------------------------------------
      ~              ~
E----------------------------10-8-7------------------------------
B---/12--12b13r12-8/10--------------10/12\10-8--8-/10-12---------
G-7-----------------------7------------------------------11/12-9-
D----------------------------------------------------------------
A----------------------------------------------------------------
E----------------------------------------------------------------
   ~
E-----------
B-----------
G-----------
D-/9--7-5---
A-----------
E-----------
repeat

© Авторские права на тексты, песни, видео и другую представленную информацию принадлежат правообладателям. Аккорды, табы, gtp и тексты песен взяты из открытых источников.
Возрастная категория сайта: 18+
Тексты некоторых песен могут содержать нецензурные выражения, брань.
© 2021 guitar-chords.ru