I'm Your Density

Intro/Verse:    e:--5-7-5-9----------------------------------------------
B:--5-7-5-9----------------------------------------------
G:--6-7-6-9----------------------------------------------
D:--7-7-7-9----------------------------------------------
A:--7-5-7-7----------------------------------------------
E:--5-5-5-7----------------------------------------------

Bridge:        
e:--12-14------------------------------------------------
B:--12-14------------------------------------------------
G:--13-14------------------------------------------------
D:--14-14------------------------------------------------
A:--14-12------------------------------------------------
E:--12-12------------------------------------------------

Другие песни этого исполнителя/группы


© Авторские права на тексты, песни, видео и другую представленную информацию принадлежат правообладателям. Аккорды, табы, gtp и тексты песен взяты из открытых источников.
Возрастная категория сайта: 18+
Тексты некоторых песен могут содержать нецензурные выражения, брань.
© 2021 guitar-chords.ru