Инструмент: Гитара (6-ти струнная) поменять
Строй: Standart (E A D G B E) поменять
Без каподастра поменять

One Summer Dream
(J. Lynne)

(1)                 (2)                  (3)
                        sl
|-5-5--3--1-1-0-0--|-0-1-3--1--0-0------|---0-1--0-----------|
|------------------|---------------3-3--|-3---------3-3-1-1--|
|-5-5--4--2-2-0-0--|-0-2-4--2--0-0------|---0-2--0-----------|
|------------------|---------------5-5--|-5---------5-5-3-3--|
|------------------|--------------------|--------------------|
|------------------|--------------------|--------------------|
 (4)
                 C 
|-------0--------0--|
|-1--3-----3--1--1--|
|-------0--------0--|
|-3--5-----5--3--2--|
|----------------3--|
|----------------3--|
(1)         (2)                         (3)             (4)
   So I go,      though it hurts me so,    I'm crying for your love.

C           Cj7              C7 
(1)        
Deep waters flow out to the sea,
             F    Em  E7 Am 
they never needed you or me.
Am          Em    Am           Fj7 
One summer dream, One summer dream.
Blue mountains high and valley low,
I don't know which way I should go.
Am          Em    Am           Fj7   C   G 
One summer dream, One summer dream.

 A  Aj7  A Em-g Em-f# Em  Em7 
(2)        
Warm summer breeze blows endlessly
Touching the hearts of those who feel
One summer dream, One summer dream.
Bird on a wing goes floating by
But there's a teardrop in its eye.
One summer dream, One summer dream.

Cj7 x32000  Em-g  022003 
Fj7 x03210  Em-f# 022002 
A   x02225  Em    022000 
Aj7 x02224  Em7   020033             

© Авторские права на тексты, песни, видео и другую представленную информацию принадлежат правообладателям. Аккорды, табы, gtp и тексты песен взяты из открытых источников.
Возрастная категория сайта: 18+
Тексты некоторых песен могут содержать нецензурные выражения, брань.
© 2021 guitar-chords.ru