Инструмент: Гитара (6-ти струнная) поменять
Строй: Standart (E A D G B E) поменять
Без каподастра поменять

Blue Moon Of Kentucky

(NC) A         D          A 
Blue moon, blue moon, blue moon,
             E7 
keep shining bright.
     A             A7 
Blue moon, keep on shining bright,
             D                Dm 
You're gonna bring me back my baby tonight,
     A     E7           A 
Blue moon, keep shining bright.
A 
I said blue moon of Kentucky
        D 
keep on shining,
      A                                  E7 
Shine on the one that's gone and left me blue.
            A 
I said blue moon of Kentucky
        D 
keep on shining,
      A                 E7                A 
Shine on the one that's gone and left me blue.
             D 
Well, it was on one moonlight night,
A 
Stars shining bright,
D 
Wish blown high
A              E 
Love said good-bye.
     A 
Blue moon of Kentucky
        D 
Keep on shining.
      A                 E7               A 
Shine on the one that's gone and left me blue.

Solo 1: by Scotty Moore
      A 
e||-----------------------------------------------------||
B||---4/5---4/5------4/5------4/5---4/5---4/5---4/5-----||
G||---5/6---5/6------5/6------5/6---5/6---5/6---5/6-----||
D||---6/7---6/7------6/7------6/7---6/7---6/7---6/7-----||
A||-0---------------------------------------------------||
E||-----------------------------------------------------||
      D 
e||-------------10--------------||
B||--------10---10---10---------||
G||----11--11--------11---------||
D||----12-----------------------||
A||-12--------------------------||
E||-10--------------------------||
      A 
e||-----------------------------------------------------||
B||---4/5---4/5------4/5------4/5---4/5---4/5---4/5-----||
G||---5/6---5/6------5/6------5/6---5/6---5/6---5/6-----||
D||---6/7---6/7------6/7------6/7---6/7---6/7---6/7-----||
A||-0---------------------------------------------------||
E||-----------------------------------------------------||
      E 
e||------------12---------------||
B||--------12--12--12-----------||
G||----13--13------13-----------||
D||----14-----------------------||
A||-14--------------------------||
E||-12--------------------------||
      A 
e||-----------------------------------------------------||
B||---4/5---4/5------4/5------4/5---4/5---4/5---4/5-----||
G||---5/6---5/6------5/6------5/6---5/6---5/6---5/6-----||
D||---6/7---6/7------6/7------6/7---6/7---6/7---6/7-----||
A||-0---------------------------------------------------||
E||-----------------------------------------------------||
       D 
e||-------------10--------------||
B||--------10---10---10---------||
G||----11--11--------11---------||
D||----12-----------------------||
A||-12--------------------------||
E||-10--------------------------||
       A                E              A 
e||---4/5---4/5---------------6/7--7------5------------------5----||
B||---4/5---4/5---------8/9---8/9--9------------5-----7-----------||
G||---5/6---4/6---------8/9---------------------------------------||
D||------------------------------------------------7--------------||
A||------------------------------------0-----0------------0-------||
E||------------------------------------5-----5------------5-------||

Well, I said blue moon of Kentucky
Just keep on shining.
Shine on the one that's gone and left me blue.
I said blue moon of Kentucky
keep on shining.
Shine on the one that's gone and left me blue.

Solo: repeat one more time solo 1.

Well, it was on one moonlight night,
Stars shining bright,
Wish blown high
Love said good-bye.
Blue moon of Kentucky
Keep on shining.
Shine on the one that's gone and left me blue.            

© Авторские права на тексты, песни, видео и другую представленную информацию принадлежат правообладателям. Аккорды, табы, gtp и тексты песен взяты из открытых источников.
Возрастная категория сайта: 18+
Тексты некоторых песен могут содержать нецензурные выражения, брань.
© 2021 guitar-chords.ru