Solo:        
E||--5--5--5--5--5--5--5--5--|--5--5--5--5--5--5--5--5--|
B||--5--5--5--5--5--5--5--5--|--5--5--5--5--5--5--5--5--|
G||--------------------------|--------------------------|
D||--------------------------|--------------------------|
A||--------------------------|--------------------------|
E||--------------------------|--------------------------|

--5--8----5-------------|--------------------------|----------5-------------|
--8----------8----7--5--|-----5--------------------|-------7-----8--7--5----|
------------------------|--7-----5--5-----------5--|--7---------------------|
------------------------|--------------7--6--7-----|------------------------|
------------------------|--------------------------|------------------------|
------------------------|--------------------------|------------------------|

--------------------------------|-----------------------5--|
--5---------5---------5---------|-----------------5--7-----|
-------7---------7---------5----|-----------5--7-----------|
--------------------------------|--7--5--7-----------------|
--------------------------------|--------------------------|
--------------------------------|--------------------------|

------------------------|-----------------------|-----------------------|
----8--7--5-----5-------|-----------------------|-----------------------|
-------------7-----5----|-----------5-----------|--5--------5-----------|
------------------------|--7--5--7-------7------|-----7p-5-------7------|
------------------------|-----------------------|-----------------------|
------------------------|-----------------------|-----------------------|

--5---------8----5-------|-----------------------||
-----8p10---8-------8----|--5--------------------||
-------------------------|-----5-----------------||
-------------------------|----------7----5--7----||
-------------------------|-----------------------||
-------------------------|-----------------------||

Solo 2:        E||--5-------5------5--|----5--5--8---------|--5--------5-----5--|
B||--5-------5------5--|-------5--8---------|--5--------5-----5--|
G||--6-----------------|---------------------|-----------6--------|
D||---------------------|---------------------|---------------------|
A||---------------------|---------------------|---------------------|
E||---------------------|---------------------|---------------------|

-------5--8----------|----5---------5--------|--8--5--------------------|
----5--5--8----------|-------8h-10-----------|--7-----8--7--5-----5-----|
---------------------|-----------------------|-----------------7-----5--|
---------------------|-----------------------|--------------------------|
---------------------|-----------------------|--------------------------|
---------------------|-----------------------|--------------------------|

--------------------------|--5-----------------------|-----------------------|
--------------------5--7--|-----8--7--5-----5--------|-----------------------|
--6-----------5--7--------|--------------7-----5--6--|-----------5-----------|
-----7--6--7--------------|--------------------------|--7--6--7-------7------|
--------------------------|--------------------------|-----------------------|
--------------------------|--------------------------|-----------------------|

-------------------------|--------------------5-------|
-----------------5-------|--------------5--7-----8h10-|
-----------5--7-------7--|--5-----5--7----------------|
-----5--7----------------|-----7----------------------|
--7----------------------|----------------------------|
-------------------------|----------------------------|

------8----5-------------------|
------7---------8----5---------|
--------------------------5----|
-------------------------------|
-------------------------------|
-------------------------------|

Ending:        
E||---------5--------------|----------------------||
B||------------8p7-5--7----|--5--------5----------||
G||------------------------|--5--6-----6----------||
D||------7-----------------|--------7--7----------||
A||------------------------|-----------7----------||
E||------------------------|----------------------||

© Авторские права на тексты, песни, видео и другую представленную информацию принадлежат правообладателям. Аккорды, табы, gtp и тексты песен взяты из открытых источников.
Возрастная категория сайта: 18+
Тексты некоторых песен могут содержать нецензурные выражения, брань.
© 2021 guitar-chords.ru