Инструмент: Гитара (6-ти струнная) поменять
Строй: Standart (E A D G B E) поменять
Без каподастра поменять

Good Time Charlie's Got the Blues

Riff 1    Riff 2:   Riff 3:      Riff 4:
E-------  E-------  E----------  E-15-14-12------12----
B--8b---  B--13b--  B----------  B----------15-15---12-
G----7--  G----12-  G-11-12-14-  G---------------------
D-------  D-------  D----------  D---------------------
A-------  A-------  A----------  A---------------------
E-------  E-------  E----------  E---------------------
Bend up   Bend up
3 times.  3 times.

Riff 5:
E--------------------
B-13-12-10------10---
G----------12-12---9-
D--------------------
A--------------------
E--------------------

Intro:
G   Riff 1  G   Riff 1

G                 Riff 1
Everybody's gone away
           C         Riff 2
Said they're moving to L.A.
                D7     Riff 3
There's not a soul I know around
G                     Riff 1
Everybody's leaving town.

G                             Riff 4
Some caught a freight, some caught a plane
                C         Riff 5
Find the sunshine, leave the rain
                    D7         Riff3
They said this town will waste your time
G                         Riff 1
I guess the ride is wasting mine
G                C       D7 
Some gotta win, some gotta lose
                G         Riff 1
Good time Charlie's got the blues
D7                    G         Riff 1
Good time Charlie's got the blues

Solo:        
E-------------------------------------|
B--------------------7-8-7--10/8-p-7--|
G-------7-----------------------------|
D-9-9-9---9-7---7p9-------------------|
A-------------9-----------------------|
E-------------------------------------|

E------------------------------------------|
B------------------------------------------|
G---7--------------------------------------|
D-9b--9-7----------------------------------|
A---------9-7---7--10------------7-----10--|
E-------------10----------10--10----10-----|

You know my heart keeps telling me
You're not a kid a thirtythree
Play aroun you'll lose your wife
Play too long you'll lose your life
Some gotta win, some gotta lose
Good time Charlie's got the blues
Good time Charlie's got the blues
Good time Charlie's got the blues

Solo

Some gotta win, some gotta lose
Good time Charlie's got the blues
Good time Charlie's got the blues
Good time Charlie's got the blues

Good SONG play everyone!!!            

© Авторские права на тексты, песни, видео и другую представленную информацию принадлежат правообладателям. Аккорды, табы, gtp и тексты песен взяты из открытых источников.
Возрастная категория сайта: 18+
Тексты некоторых песен могут содержать нецензурные выражения, брань.
© 2021 guitar-chords.ru