Инструмент: Гитара (6-ти струнная) поменять
Строй: Standart (E A D G B E) поменять
Без каподастра поменять

He'll Have to Go

Intro:        
E||----------------------------------------------||
B||----------------------------------------------||
G||----------------------------------------------||
D||--------4----5-4-4----------------------------||
A||---5~-7------------7----5-7-5-----------------||
E||-5~-------5-----------5---------7b-7b-5-10----||

         D                   G             D 
Put your sweet lips a little closer to the phone
        D                            A 
Just pretend that we're together all alone
         D               D7           G 
Tell the man to turn the juke box way down low
        D                      A                       D     D7 
You can tell your friend there with you, he'll have to go
          G 
You can't say the words I want to hear
          D                D7 
When your with another man
       G 
If you love me, answer yes or no
        D            A 
Darling I will understand
         D                   G             D 
Put your sweet lips a little closer to the phone
        D                            A 
Just pretend that we're together all alone
         D               D7           G 
Tell the man to turn the juke box way down low
        D                      A                       D     D7 
You can tell your friend there with you, he'll have to go

Solo:(James Burton break)
E||-------------------------- ----------------------------------7-----||
B||-------------------------- ------------------------------5/7---7-5-||
G||------------------7------- - --------------------------------------||
D||-----4---4-5--7-9---9b-7-- ------7-7-9.-7---------5-4--------------||
A||-5-7---7------------------ -9-10----------9/7-5-------7------------||
E||-------------------------- ---------------------5------------------||

--------------------------------------10b---||
-----------------------------------------11-||
-------------------------7------------------||
------------4-5-5/7-7--9---9po7-------------||
---5-5---5------------------------10--------||
-5-----7------------------------------------||

--------------------------------------------||
--------------------------------------------||
--------------------------------------------||
-------4--4-5b-4-4--------------------------||
---5-7--------------7---5-7-5---------------||
-5--------------------5-------7b-7b-5-10----||

You can't say the words I want to hear
When your with another man
If you love me, answer yes or no
Darling I will understand

Just put your sweet lips a little closer to the phone
Just pretend that we're together all alone
Tell the man to turn the juke box way down low
And you can tell your friend there with you, he'll have to go
Yes you can tell your friend there with you, he'll have to go

endin':        E||----------------||
B||----------------||
G||----------------||
D||----------------||
A||----------------||
E||--7b-7b-5-10----||            

© Авторские права на тексты, песни, видео и другую представленную информацию принадлежат правообладателям. Аккорды, табы, gtp и тексты песен взяты из открытых источников.
Возрастная категория сайта: 18+
Тексты некоторых песен могут содержать нецензурные выражения, брань.
© 2021 guitar-chords.ru