Инструмент: Гитара (6-ти струнная) поменять
Строй: Standart (E A D G B E) поменять
Без каподастра поменять

      E 
Well, since my baby left me,
  E 
I found a new place to dwell.
     E 
It's down at the end of lonely street
E 
at Heartbreak Hotel.
               A7 
Where I'll be, I'll be so lonely baby,
A7 
Well, I'm so lonely
B7                         E7 
I'll be so lonely, I could die.
And although it's always crowded,
You still can find some room.
Where broken hearted lovers
To cry there in the gloom.
We'll be so, we'll be so lonely baby,
We'll be so lonely,
Well, they're so lonely, they could die.
Well, the Bell hop's tears keep flowin',
And the desk clerk's dressed in black.
Well they been so long on lonely street
They ain't ever gonna look back.
And they're so, and they're so lonely baby,
Well, they're so lonely,
Well, they're so lonely, they could die.
Hey now, if your baby leaves you,
And you got a tale to tell.
Just take a walk down lonely street
To Heartbreak Hotel.
Where you will be,
You'll be so lonely baby,
Well, you'll be so lonely,
You'll be so lonely, you could die

Solo: You have to play it that:
E||--12--12--12--12----------12\-----|--12--12--12--12----------------|
B||--12--12--12--12--12--15----------|--12--12--12--12--12--15\-------|
G||----------------------------------|--------------------------------|
D||----------------------------------|--------------------------------|
A||----------------------------------|--------------------------------|
E||----------------------------------|--------------------------------|
     +----3---+                         +----3---+
|--12--12--12--12----------12\-----||--12--12--12--12--12--15----------|
|----------------------------------||----------------------------------|
|----------------------------------||----------------------------------|
   +----3---+
|--12--12--12--12--12--12--12--12--12--12--12--12--|--------------------------|
|--14b-15--15--15--15--15--15--15--15--15--15--15--|--------------------------|
|--------------------------------------------------|--------------------------|
|--------------------------------------------------|--------------2--2--4--2--|
|--------------------------------------------------|--0--0--4--4--------------|
|--------------------------------------------------|--------------------------|
   +----3---+  +----3---+  +----3---+  +----3---+
|--------------------------|--------------------------|------------2---------||
|--------------------------|--------------------------|------------0---------||
|--------------------------|--------------------------|------------2---------||
|--------------2--2--4--2--|--------------------------|------------1---------||
|--0--0--4--4--------------|--2--2--0--0--------------|-----0--1---2---------||
|--------------------------|--------------4--4--2--2--|--0-------------------||

And although it's always crowded,
You still can find some room.
Where broken hearted lovers
To cry there in the gloom.
We'll be so, we'll be so lonely baby,
We'll be so lonely,
Well, they're so lonely, they could die.

Ending:        
Fmaj7 Emaj7 

  Fmaj7  Emaj7 
e --5--  --4--
B --5--  --4--
G --5--  --4--
D --3--  --2--
A -----  -----
E -----  -----            

© Авторские права на тексты, песни, видео и другую представленную информацию принадлежат правообладателям. Аккорды, табы, gtp и тексты песен взяты из открытых источников.
Возрастная категория сайта: 18+
Тексты некоторых песен могут содержать нецензурные выражения, брань.
© 2021 guitar-chords.ru