Инструмент: Гитара (6-ти струнная) поменять
Строй: Standart (E A D G B E) поменять
Без каподастра поменять

I Don't Care if the Sun Don't Shine

Intro:        
G 

G 
Well, I don't care if the sun don't shine.
G 
I get my lovin' in the evening time
G                D7 
When I'm with my baby.
D7 
Well, it ain't no fun with the sun around.
D7 
I get going when the sun goes down
D7               G 
And I'm with my baby.
G 
Well, that's when we're gonna kiss and kiss and kiss and kiss,
G 
And we're gonna kiss some more.
    A 
Who cares how many times we kiss,
            D 
'Cause at a time like this, who keeps score?
Well, I don't care if the sun don't shine
I get my loving in the evening time
When I meet my baby.

SOLO:        
E||------------12------|--10--------10----12--10----|--7------7----7--7----|
B||------------11------|--12----12------------12----|--8------8-------8----|
G||--------------------|----------------------------|----------------------|
D||--------------------|----------------------------|----------------------|
A||--------------------|----------------------------|----------------------|
E||--------------------|----------------------------|----------------------|

--6------6----6--6--3--|--3-------3--3----3----|-------3--------------|
--5------5-------5-----|--3--5-----------------|-------3------3--3----|
-----------------------|-----------------------|-------4---------4----|
-----------------------|-----------------------|----------------------|
-----------------------|-----------------------|--5-------------------|
-----------------------|-----------------------|----------------------|

--7------10/---12------|--12------------------|------------12--12----|
--8--------------------|----------------------|------------10--------|
-----------------------|----------11----------|------------11--------|
-----------------------|----------------------|----------------------|
-----------------------|----------------------|----------------------|
-----------------------|----------------------|----------------------|

--12--------12----12--12----|--10--------10----10--10----|
--10--------10--------10----|--10--------10--------10----|
--11----11--11--------11----|--11----11--11--------11----|
----------------------------|----------------------------|
----------------------------|----------------------------|
----------------------------|----------------------------|

--5-------5----5--5----|--2-------2----2--2----|--------------------------|
--7-------7-------7----|--3-------3-------3----|--------------------------|
--7----7--7-------7----|-------4---------------|--------------------------|
-----------------------|-----------------------|--0--2--4--0--2--4--0--2--|
-----------------------|-----------------------|--------------------------|
-----------------------|-----------------------|--------------------------|

------------------------|--------------------|--------------------||
------------------------|----0------0--------|--0------0----------||
-----0------------------|----3b-----3b-------|--3b-----3b---------||
--4-----2--4----4--4----|--------------------|--------------------||
------------------------|--------------------|--------------------||
------------------------|--------------------|--------------------||

Well, that's when we're gonna kiss and kiss and kiss and kiss,
And we're gonna kiss some more.
Who cares how many times we kiss,
'Cause at a time like this, who keeps score?
Well, I don't care if the sun don't shine
I get my loving in the evening time
When I meet my baby.

And it don't matter if it's sleet or snow,
The drive-in's cozy when the lights are low
And I'm with my baby.
Makes no difference if the rain comes down
I don't notice when she's around.
Oh boy, what a baby.
Well, that's when we're gonna kiss and kiss and kiss and kiss
and
We're gonna kiss some more.
Well, one kiss from my baby doll
Makes me hot-
More more more more.
Well, I don't care if the sun don't shine
I get my loving in the evening time
When I'm with my baby.

SOLO:        
E||------------12------|--10--------10----12--10----|--7------7----7--7----|
B||------------11------|--12----12------------12----|--8------8-------8----|
G||--------------------|----------------------------|----------------------|
D||--------------------|----------------------------|----------------------|
A||--------------------|----------------------------|----------------------|
E||--------------------|----------------------------|----------------------|

--6------6----6--6--3--|--3-------3--3----3----|-------3--------------|
--5------5-------5-----|--3--5-----------------|-------3------3--3----|
-----------------------|-----------------------|-------4---------4----|
-----------------------|-----------------------|----------------------|
-----------------------|-----------------------|--5-------------------|
-----------------------|-----------------------|----------------------|

--7------10/---12------|--12------------------|------------12--12----|
--8--------------------|----------------------|------------10--------|
-----------------------|----------11----------|------------11--------|
-----------------------|----------------------|----------------------|
-----------------------|----------------------|----------------------|
-----------------------|----------------------|----------------------|

--12--------12----12--12----|--10--------10----10--10----|
--10--------10--------10----|--10--------10--------10----|
--11----11--11--------11----|--11----11--11--------11----|
----------------------------|----------------------------|
----------------------------|----------------------------|
----------------------------|----------------------------|

--5-------5----5--5----|--2-------2----2--2----|--------------------------|
--7-------7-------7----|--3-------3-------3----|--------------------------|
--7----7--7-------7----|-------4---------------|--------------------------|
-----------------------|-----------------------|--0--2--4--0--2--4--0--2--|
-----------------------|-----------------------|--------------------------|
-----------------------|-----------------------|--------------------------|

------------------------|--------------------|--------------------||
------------------------|----0------0--------|--0------0----------||
-----0------------------|----3b-----3b-------|--3b-----3b---------||
--4-----2--4----4--4----|--------------------|--------------------||
------------------------|--------------------|--------------------||
------------------------|--------------------|--------------------||

Well, that's when we're gonna kiss and kiss and kiss and kiss
and
We're gonna kiss some more.
Well, one kiss from my baby doll
Makes me hot-
More more more more.
Well, I don't care if the sun don't shine
I get my loving in the evening time
When I'm with my baby.            

© Авторские права на тексты, песни, видео и другую представленную информацию принадлежат правообладателям. Аккорды, табы, gtp и тексты песен взяты из открытых источников.
Возрастная категория сайта: 18+
Тексты некоторых песен могут содержать нецензурные выражения, брань.
© 2021 guitar-chords.ru