Инструмент: Гитара (6-ти струнная) поменять
Строй: Standart (E A D G B E) поменять
Без каподастра поменять

I'm Left, You're Right, She's Gone

Intro:        
     E 
E||---------0--0--0--0--0--|
B||---------0--0--0--0--0--|
G||---------1--1--1--1--1--|
D||---------2--2--2--2--2--|
A||--0-h-2--2--2--2--2--2--|
E||---------0--0--0--0--0--|

h=hammer on

             E          B7          E 
Well, you're right, I'm left, she's gone.
       E              B7        E 
You're right, and I'm left all alone.
          A 
Well, you tried to tell me so,
    E 
But how was I to know
     B7                      E 
That she was not the one for me?
You told me all along,
You're right, our love was so wrong.
But now I changed my mind,
Because she broke the ties that bind,
And I know that she never cared for me.
        A 
Well, I thought I knew just what she'd do,
  E 
I guess I'm not so smart.
        A                            E             B7 
Oh, you tried to tell me along she'd only break my heart.
    E            B7           E 
I'm left, you're right, she's gone.
       E              B7        E 
You're right, and I'm left all alone.
Well, she's gone I know not where,
But now I just don't care.
For now I'm falling for you.

SOLO: Scotty Moore Break:
               E              B              E 
e||------|--------------|--------------|---------|---------|--------------|
B||------|----------/9--|-7-------/10--|-9-------|-----/9--|--------------|
G||--/9--|-/9-------/9--|-8-------/11--|-9-------|-----/9--|-9------------|
D||--/9--|-/9-----------|--------------|---------|---------|-9------------|
A||------|--------------|--------------|---------|---------|--------------|
E||------|--------------|--------------|---------|---------|--------------|
               B              E 
e||------|--------------|--------------9----|----9---------9--------------|
B||---9--|-7-------/10--|-9---------9-------|-9---------9---------9\\\----|
G||---9--|-8-------/11--|-9-----12--------12|-------12--------12----------|
D||------|--------------|-------------------|-----------------------------|
A||------|--------------|-------------------|-----------------------------|
E||------|--------------|-------------------|-----------------------------|
          A                                              E 
e||--------5-------------|-----------12-------------|-----0---------------|
B||----------------7-----|----10------------10------|-------------2-----0-|
G||----------------------|--------9-------------9--0h1--------------------|
D||--------7----------7--|--------------------------|-----2----------2----|
A||---0---------0--------|-0-------------0----------|---------------------|
E||----------------------|--------------------------|0---------0----------|
                                   B          A            G# 
e||------0-----------0-------|----7----------5-------|----4--------------||
B||------------2-------------|-----------------------|-------------------||
G||--------------------------|-----------------------|-------------------||
D||---------2-----------2----|-------9----------7----|-------6-----------||
A||--------------------------|-----------------------|-------------------||
E||---0-----------0----------|-7----------5----------|-4----------3------||
          E 
e||---------0--------------|---0------------------||
B||-----------------2------|---------2------------||
G||-----------------------0h1---------------------||
D||--------2-----------2---|------2----------2----||
A||------------------------|----------------------||
E||---0----------0---------|0-----------0---------||

If you'll forgive me now,
I'll make it up somehow.
So happy we will be,
In a home just for three,
And I'll soon forget her,
Now I know.
Well, I thought I knew just what she'd do,
I guess I'm not so smart.
You tried to tell me all along,
She'd only break my heart.
Well, you're right, I'm left, she's gone.
You're right, and I'm left all alone.
Well, she's gone, I know not where,
But now I just don't care,
For now I've fallen for you.

Ending:        
      E                        B7         E 
e||----------9----------7----|-------7------------||
B||-------9----------9-------|-------7------------||
G||---12----------9----------|-8--8-------9-------||
D||--------------------------|------------9-------||
A||--------------------------|--------------------||
E||--------------------------|--------------------||            

© Авторские права на тексты, песни, видео и другую представленную информацию принадлежат правообладателям. Аккорды, табы, gtp и тексты песен взяты из открытых источников.
Возрастная категория сайта: 18+
Тексты некоторых песен могут содержать нецензурные выражения, брань.
© 2021 guitar-chords.ru