Инструмент: Гитара (6-ти струнная) поменять
Строй: Standart (E A D G B E) поменять
Без каподастра поменять

You're a Heartbreaker

Intro:        
     G                        D                     A 
E||--------------10--------|--5\-------2------4/-|--5-------------------|
B||----------12------12----|--7\-------3------4/-|--5-------------------|
G||----------12------12----|--7\-------2------5/-|--6-------------------|
D||------------------------|---------------------|----------------------|
A||------------------------|---------------------|-------0----2----4----|
E||------------------------|---------------------|----------------------|
     D                       D 
E||-----------------------|-------------------|
B||-----------------------|--3----------------|
G||---------------2--4----|-------------------|
D||--0------2h-4----------|-------------------|
A||-----------------------|-------------------|
E||-----------------------|-------------------|

(NC)     D 
You're a heartbreaker,
         G 
You're a love faker,
  D                         A 
A heartbreaker playing with fire.
         D 
You're a tear snatcher,
         G 
You're a quarrel patcher,
        D              A        D 
But you can't break my heart anymore,
A                                   D 
For I just found someone else who's sure to take your place.
A                                 D 
Someone I can always trust and to fill this empty space.
         D 
You're a heartbreaker,
         G 
You're a love faker,
        D              A        D 
But you can't break my heart anymore.
You're a smooth talker,
You're a real cool walker,
But now you have talked out of turn.
You're a high stepper,
You're a eye-catcher,
But you won't catch my glances anymore.
For I just found someone else who's sure to take your place,
Someone I can always trust and to fill this empty space.
You're a heartbreaker
You're a love faker,
But you can't break my heart anymore.
You're a heartbreaker
You're a love faker,
A heartbreaker playing with fire.
You're a tear snatcher,
You're a quarrel patcher,
But you can't break my heart anymore.
For I've just found someone else who's sure to take your place.
Someone I can always trust and to fill this empty space.
You're a heartbreaker,
You're a love faker,
But you can't break my heart anymore.

Ending:        
     D                       D 
E||--10-------12----13----|--14----------10----|
B||--10-------13----14----|--15----------10----|
G||-----------------------|--------------11----|
D||-----------------------|-----------9--------|
A||-----------------------|--------------------|
E||-----------------------|--------------------|            

© Авторские права на тексты, песни, видео и другую представленную информацию принадлежат правообладателям. Аккорды, табы, gtp и тексты песен взяты из открытых источников.
Возрастная категория сайта: 18+
Тексты некоторых песен могут содержать нецензурные выражения, брань.
© 2021 guitar-chords.ru