Вступление к песне Eminem'a "Lose Yourself"
------------------------------------------------------------------
------------------------------------------------------------------
------------------------------------------------------------------
------------8-------8-------9-------9---99------------------------
--------6-6-6-6-6-6-6-6-6-6-6-6-6-6-6---66------------------------
------------------------------------------------------------------

-----------------------------------------------------------------
-----------------------------------------------------------------
-----------------------------------------------------------------
------------8-------8-------9-------9---996-996------------------
--------6-6-6-6-6-6-6-6-6-6-6-6-6-6-6---666-666------------------
-----------------------------------------------------------------
Fixxxer


© Авторские права на тексты, песни, видео и другую представленную информацию принадлежат правообладателям. Аккорды, табы, gtp и тексты песен взяты из открытых источников.
Возрастная категория сайта: 18+
Тексты некоторых песен могут содержать нецензурные выражения, брань.
© 2021 guitar-chords.ru