Вообще то, это играется на 6-ти струнной гитаре.
Начинаем c ноты си - бемоль.
G|-15----15-----17-----17----18----18----17-----17----|
D|----15----15-----15-----15----15----15-----15----15-|
A|----------------------------------------------------|
E|----------------------------------------------------|

G|-15----15-----17-----17----18------17-----15--------|
D|----15----15-----15-----15--------------------------|
A|----------------------------------------------------|
E|----------------------------------------------------|

Это можно начинать c 10-того лада и по интервалам дальше,
но не будет звучать так жалобно, как c 15-того.
Потом к нашей гитаре подключается басс:
G|----------------------------------------------------|
D|----8----------8-10-11------10--8--10---------------|
A|-8-----------8--------------------------8--9---8-6--|
E|----------------------------------------------------|
Потом идёт какая - ленивая прогрессия, причём на пластинке.
Если вы её начнёте играть, кто вас будет слушать? :)


© Авторские права на тексты, песни, видео и другую представленную информацию принадлежат правообладателям. Аккорды, табы, gtp и тексты песен взяты из открытых источников.
Возрастная категория сайта: 18+
Тексты некоторых песен могут содержать нецензурные выражения, брань.
© 2021 guitar-chords.ru