acoustic version of Layla n 12/8 time

Intro:        
     Dm         Bb        C      Dm          Bb      C         Dm 
|-------|----------------|-------------|-1----------|----------------|
|-------|--------3--3----|-5-5---------|-3-----3-3--|----------------|
|-------|--------3--3----|-5-5---------|-2-----3-3--|----------------|
|-----0-|--------3--3----|-5-5-0-----0-|-------3-3--|-------0------0-|
|-0^3---|--3--1-------3--|-------0^3---|---3-1------|-3-0-3----0^3---|
|-------|----------------|-------------|------------|----------------|
         Bb      C          Dm 
|--1----------------|--------------|
|--3--------3-3-----|--5-5-----5-6-|
|--2--------3-3-----|--5-5---------|
|-----------3-3-----|--5-5--0------|
|-----3--1-------3--|--------------|
|-------------------|--------------|

First Solo:    Dm               Bb       C        Dm                          Bb 
|-----------------------|-------------8----8-|-10-12-10-8-10-8----------------|
|-5^6^5---5-6-5---5-6-8-|-6-8-10-8-10---10---|-----------------10-8-10-8-6^8^6|
|-------7-------7-------|--------------------|--------------------------------|
|-----------------------|--------------------|--------------------------------|
|-----------------------|--------------------|--------------------------------|
|-----------------------|--------------------|--------------------------------|
  C       Dm           Bb   C 
|-------------------|------|--------|
|-5-6-5-------5-6-5-|------|--------|
|-------7-5-7-------|-7----|--------|
|-------------------|------|--------|
|-------------------|------|-----0-3|
|-------------------|------|--------|

C#m7                             G#7   C#m7        C        D      E     E7 
Verse:        
What will you do when you get lonely?  With no-one waiting by your side
F#m          B           E                  A  F#m          B 
You've been running and hiding much too long,  You know its just your foolish
E      A 
pride, Layla

Dm  Bb     C            Dm           Bb    C               Dm            Bb 
Chorus:        
       You got me on my knees layla    I'm begging darlin' please, Layla
C                 Dm                    Bb  C 
Darlin' won't you ease my worried mind
repeat for 2nd and third verse:
2nd solo:
Dm        Bb      C              Dm                                 Bb 
|----------------|---------------------|-------------------------------------
|-6-6-6---6------|---------------------|-------13-13-------13-13-------13-13-
|-7-7-7-7---7----|---------------------|-13/14-14-14-13/14-14-14-13/14-14-14-
|-------------7--|-6--5\3--5^3---------|-------------------------------------
|----------------|-------------5--3/5--|-------------------------------------
|----------------|---------------------|-------------------------------------
              C                        Dm 
-------------|----------------------------------------------|
-------13-13-|-------13-13-------13-13-------13-15----------|
-13/14-14-14-|-13/14-14-14-13/14-14-14-13/14-------12\10----|
-------------|-------------------------------------------12-|
-------------|----------------------------------------------|
-------------|----------------------------------------------|
  Dm                   Bb                    C             Dm 
|-------------------10-12-10^12^10----10----|-----------------------------|
|----------------13----------------13----13-|-10--10-10-10-11-10----------|
|-10----10-12/14----------------------------|--------------------12-------|
|----12-------------------------------------|-----------------------------|
|-------------------------------------------|-----------------------------|
|-------------------------------------------|-----------------------------|
           Bb         C               Dm                       Bb 
|-------------------|-----------------------------|-13--10--------------10|
|-------------------|-5-6-5^6^5-------------------|------------------13---|
|-10-9-7^9-7-5---7--|-----------7-5---------------|-----------------------|
|--------------7----|---------------7-6\5-3-5^3---|-----------------------|
|-------------------|---------------------------5-|-----------------------|
|-------------------|-----------------------------|-----------------------|
  C                  Dm                            Bb      C        Dm 
|-12--11/12--10---------------------|--10----13-10-------|-15-15-15-13------|
|---------------13------------------|-----10---------13--|---------------15-|
|--------------------14-13-14\12----|--------------------|------------------|
|--------------------------------12-|--------------------|------------------|
|-----------------------------------|--------------------|------------------|
|-----------------------------------|--------------------|------------------|
                  Bb        C               Dm 
|-12-13-15---13-15---12-13-|-10-----------------------------|
|--------------------------|----13-10-------13-10-----------|
|--------------------------|----------12-10-------12\10-----|
|--------------------------|-----------------------------12-|
|--------------------------|--------------------------------|
|--------------------------|--------------------------------|
         Bb        C         Dm 
|-----------------|-----------------|
|-----------------|-----------------|
|-9-8--8-8--8^9---|--5--------------|
|---------------7-|----7-6-5\3------|
|-----------------|-------------5---|
|-----------------|-----------------|

repeat chorus


© Авторские права на тексты, песни, видео и другую представленную информацию принадлежат правообладателям. Аккорды, табы, gtp и тексты песен взяты из открытых источников.
Возрастная категория сайта: 18+
Тексты некоторых песен могут содержать нецензурные выражения, брань.
© 2021 guitar-chords.ru