#табулатура

    
Hello

Куплет:
    Hm                                      A                 F#m   ---Hm 
E------------------|-----------------|-----------------|-------------------|
B----3-3-2-2-------|---3-3-2-2-------|---2-2-0-0-------|-----2---3-------2-|
G-----------4----4-|----------4----4-|----------2----2-|---2---2---2----2--|
D---4-4-4-4--4--4--|--4-4-4-4--4--4--|--2-2-2-2--2--2--|--4-4-4-4-4-4--4---|
A--2-----------2---|-2-----------2---|-0-----------0---|-4------------4----|
E------------------|-----------------|-----------------|-------------------|

припев: (перебор на припеве - приблизительный)
     G        F#      Hm                 A           F# 
E------------------|-----------------|----------------------|
B--3-----3--2-----2|-3-----3-------3-|-2----0-----2----2----|
G--4---4----3---3--|-4----4-------4--|-2--2---2---3--3---3--|
D--5-5------4-4----|-4---4---4---4---|-2-2-2-2-2--4-4-4-4-4-|
A--5--------4------|-2-2-------2-----|-0----------4---------|
E------------------|-----------------|----------------------|
    G         Em7           F#        ---Hm 
E------------------|----------------FL(5)--|----------------------|
B--3-----3------2-0|-------------2---------|----------------------|
G--4---4-------0---|-----------3-----------|----------------------|
D--5-5---------2---|---------4-------------|----------------------|
A--5-----------2---|-------4---------------|----------------------|
E---------3-2-0----|-0-1-2-----------------|----------------------|

    Hm                A     F# 
playground scorer   rates again
rain clouds come to play again
G           F#                           Hm 
has no one told you - she is not breathing?
  A            F# 
hello, i'm your mind
 G              Em7        F# 
giving you someone to talk to ... hello..
if i smiling - don't believe
soon i know, i'l wake from this trip
don't try to fix me, i'm not broken
hello, i'm The lie
living for, you saw you can't h-i-de.. don't cry
sudenly i know - im'not sleeping
hello, im stil here
all that's - left of yesterday--------

© Авторские права на тексты, песни, видео и другую представленную информацию принадлежат правообладателям. Аккорды, табы, gtp и тексты песен взяты из открытых источников.
Возрастная категория сайта: 18+
Тексты некоторых песен могут содержать нецензурные выражения, брань.
© 2021 guitar-chords.ru