Army life

Intro:                       Verse:
                                C               D# 
e----1-----1-----1--------|  e-----------------------|
B---3-3---3-3---3-3---3---|  B-----------------------|
G--3---3-3---3-3---3-3-3--|  G--5-5-5-5-5-5-5-5-8-8--|
D-------------------------|  D--5-5-5-5-5-5-5-5-8-8--|
A-------------------------|  A--3-3-3-3-3-3-3-3-6-6--|
E-------------------------|  E-----------------------|
Chorus:
   G#      D#  C               G#      D#  C 
e---------------------------|------------------|
B---------------------------|------------------|
G----------8-8-5-5-5-5-5-5--|----------8-8-----|
D--6-6-6-6-8-8-5-5-5-5-5-5--|--6-6-6-6-8-8-10--|
A--6-6-6-6-6-6-3-3-3-3-3-3--|--6-6-6-6-6-6-10--|
E--4-4-4-4------------------|--4-4-4-4-----8---|

Tip: In the intro, lay down the fingering for all the
notes, then play them without letting go. That way
the note will ring out.


© Авторские права на тексты, песни, видео и другую представленную информацию принадлежат правообладателям. Аккорды, табы, gtp и тексты песен взяты из открытых источников.
Возрастная категория сайта: 18+
Тексты некоторых песен могут содержать нецензурные выражения, брань.
© 2021 guitar-chords.ru