Beat The Bastards

RIFF 1 (Intro)

E----------------------------------------------------------------------------------------------------
B---------------------------------------------------------------------------------------------------
G---4----4-4-4-4-4-4-4-4-4-4-4-4----4/7--7-7-7-7-7---7/9---9-9-9------------------------
D---4----4-4-4-4-4-4-4-4-4-4-4-4----4/7--7-7-7-7-7---7/9---9-9-9------------------------
4times
A---2----2-2-2-2-2-2-2-2-2-2-2-2----2/5--5-5-5-5-5---5/7---7-7-7---8/7---8/7-----------
E----------------------------------------------------------------------------------------------------

RIFF 2 (with vocal)

E------------------------------------------------------------------------------------------------------------------
B------------------------------------------------------------------------------------------------------------------
G------------------------------------------------------------------------------------------------------------------
D----4---*-*-*-*-*-*-*-*-*-*-*-*----4/7---7-7-7-7-7----7/9----9-9-9------------------------------------
A----2---*-*-*-*-*-*-*-*-*-*-*-*----2/5---5-5-5-5-5----5/7----7-7-7---8/7---8/7----------------------
E------------------------------------------------------------------------------------------------------------------

Slaves to the system and there's no way out
Slaves to the system do you have a shout
You've got to beat the bastards, beat them now
Sick of policies pulling me down

E---------------------------------------------------------------------------------------
B---------------------------------------------------------------------------------------
G---------------------------------------------------------------------------------------
D----3-----2------5/4----*-*-*-*---5/4----*-*-*-*-*-----3----2--------------------
A----3-----2------3/2----*-*-*-*---3/2----*-*-*-*-*-----3----2-------------------
E----1-----0------------------------------------------------1----0---------------------

Beat the bastards, beat them now

RIFF 1

RIFF 2:

Just out of school don't have a clue
No income support for you
Can't get a job don't get a chance
Sick of politics leaving you out

E---------------------------------------------------------------------------------------
B---------------------------------------------------------------------------------------
G---------------------------------------------------------------------------------------
D----3-----2------5/4----*-*-*-*---5/4----*-*-*-*-*-----3----2--------------------
A----3-----2------3/2----*-*-*-*---3/2----*-*-*-*-*-----3----2-------------------
E----1-----0------------------------------------------------1----0--------------------

Beat the bastards, beat them now

RIFF 2:

Money money power and strength
Teenage kids with now't to spend
Hungry homless who gives a shit
Sick of policies leaving me out

E----------------------------------------------------------------------------------------------------
B---------------------------------------------------------------------------------------------------
G---4----4-4-4-4-4-4-4-4-4-4-4-4----4/7--7-7-7-7-7---7/9---9-9-9--------------------------
D---4----4-4-4-4-4-4-4-4-4-4-4-4----4/7--7-7-7-7-7---7/9---9-9-9--------------------------

A---2----2-2-2-2-2-2-2-2-2-2-2-2----2/5--5-5-5-5-5---5/7---7-7-7---8/7---8/7---------------
E----------------------------------------------------------------------------------------------------

You've got to beat the bastards
You've got to beat the bastards
Beat the bastards
You’ve got to beat the bastards.


© Авторские права на тексты, песни, видео и другую представленную информацию принадлежат правообладателям. Аккорды, табы, gtp и тексты песен взяты из открытых источников.
Возрастная категория сайта: 18+
Тексты некоторых песен могут содержать нецензурные выражения, брань.
© 2022 guitar-chords.ru